» » »

Passenger - Lifes For The Living Tabs

Artists:  A B C D E F G H I J K L M N O P Q R S T U V W X Y Z # 

Lifes For The Living Tabs

(ver. 2) Click to play this song!
Passenger
 Rating:
4/5 (4 votes)


 Lifes For The Living lessons Tabs too difficult? Try these video lessons and learn fast
 
                (Intro)
-------------------------------------------------------------------------------
                             Life's For The Living - Passenger
-------------------------------------------------------------------------------

Tuning: EADGBe

Capo 6

e|--------------0--1------1--0------0----------------------0-----0-----0----------|
B|-----1----1-3---------3---------1----1h3--------0-1-3--------1----3----3--------|
G|-------0------0-----2---------0-----------0-0--------------0--------------------|
D|---2------2-3----0-----------------------0-0----0-2-3----------------0----------|
A|-3-------------------------3-----------------------------3---------2----2-------|
E|--------------------------------------3-----------------------------------------|

e|------------------0--1------1----0---0--------------------------------------------|
B|-0h1--------2--3----------3---------1----1h3--------0h1-------0-------------------|
G|------2-2---------0-----2----------0----------0-0-------0-0-------0--0----0--0----|
D|-----2-2----1--3-----0----------------------0-0-------0-0-------0--0----0--0------|
A|-0-------------------------------3------------------------------------------------|
E|------------------------------------------3---------3---------3-----3-------------|
            
Submit corrections



        Lifes For The Living lessons Hard to play? Try these video lessons and learn fast Lifes For The Living lessons
        
↑ Back to top | Tablatures and chords for acoustic guitar and electric guitar, ukulele, drums are parodies/interpretations of the original songs. You may use it for private study, scholarship, research or language learning purposes only