» » »

Parquet Courts - Pilgrims To Nowhere Tabs

Artists:  A B C D E F G H I J K L M N O P Q R S T U V W X Y Z # 

Pilgrims To Nowhere Tabs

(ver. 1) Click to play this song!
Parquet Courts
 Rating:
2.6/5 (26 votes)

 Pilgrims To Nowhere  lessons Tabs too difficult? Try these video lessons and learn fast
 
                Tuning: Standard

intro:

e|---------------------------------------------------------------------------|
B|---------------------------------------------------------------------------|
G|---------------------------------------------------------------------------|
D|--6-6--6-6-6--6-6-6--6-6-6--6-6-6--6-6-6--6-6-6----------------------------|
A|--6-6--6-6-6--6-6-6--6-6-6--6-6-6--6-6-6--6-6-6----------------------------|
E|--4-4--4-4-4--4-4-4--4-4-4--4-4-4--4-4-4--4-4-4----------------------------|

verse:

Guitar One
e|---------------------------------------------------------------------------|
B|---------------------------------------------------------------------------|
G|----------------------------------8-8-8------------------------------------|
D|--6-6-6-6-6-6-6-6-6-6-6-6--4-4-4--8-8-8------------------------------------|
A|--6-6-6-6-6-6-6-6-6-6-6-6--4-4-4--6-6-6------------------------------------|
E|--4-4-4-4-4-4-4-4-4-4-4-4--2-2-2-------------------------------------------|

Guitar Two
e|---------------------------------------------------------------------------|
B|---------------------------------------------------------------------------|
G|--------------------------------------------------3-3-3-3-3-3-3-3----------|
D|--6-6-6-6-6-6-6-6-4-4-4-4-4-4-4-4-6-6-6-6-6-6-6-6--------------------------|
A|---------------------------------------------------------------------------|
E|---------------------------------------------------------------------------|

e|---------------------------------------------------------------------------|
B|---------------------------------------------------------------------------|
G|---------8-8-8-------------------------------------------------------------|
D|--4-4-4--8-8-8-------------------------------------------------------------|
A|--4-4-4--6-6-6-------------------------------------------------------------|
E|--2-2-2--------------------------------------------------------------------|

chorus (basically a continuation of the verse):

right after the (866) play:

e|---------------------------------------------------------------------------|
B|---------------------------------------------------------------------------|
G|---------------------------------------------------------------------------|
D|--9--9--6--6--9--9--4--4---------------------------------------------------|
A|--9--9--6--6--9--9--4--4---------------------------------------------------|
E|--7--7--4--4--7--7--2--2---------------------------------------------------|

Solo:

Guitar One
e|---------------------------------------------------------------------------|
B|---------------------------------------------------------------------------|
G|---------------------------------------------------------------------------|
D|--6-6--6-6-6--6-6-6--6-6-6--6-6-6--6-6-6--6-6-6----------------------------|
A|--6-6--6-6-6--6-6-6--6-6-6--6-6-6--6-6-6--6-6-6----------------------------|
E|--4-4--4-4-4--4-4-4--4-4-4--4-4-4--4-4-4--4-4-4----------------------------|

Guitar Two
e|---------------------------------------------------------------------------|
B|--------------------------------------16-16-16-16-14-14-16-16-19-19--------|
G|--11h13-13-13-13-11-------11-13-13-13--------------------------------------|
D|--------------------13-13--------------------------------------------------|
A|---------------------------------------------------------------------------|
E|---------------------------------------------------------------------------|

e|----------------------------------------------14-14-14-16-16-16-19-16------|
B|---16-16-14-14--------------14-16-14-16-14-16-------------------------14-14|
G|---------------16-13--11/13------------------------------------------------|
D|---------------------------------------------------------------------------|
A|---------------------------------------------------------------------------|
E|---------------------------------------------------------------------------|

e|---------------------------------------------------------------------------|
B|-----------------------------16----16----16----16----16--------------------|
G|--13-13-13-13-11-------11-13----13----13----13----13-----------------------|
D|-----------------13-13-----------------------------------------------------|
A|---------------------------------------------------------------------------|
E|---------------------------------------------------------------------------|

Intro
Verse 4x
Chorus
Intro
Verse 4x
Chorus
Solo 
Chorus            
Submit corrections


        Pilgrims To Nowhere  lessons Hard to play? Try these video lessons and learn fast Pilgrims To Nowhere  lessons
        
↑ Back to top | Tablatures and chords for acoustic guitar and electric guitar, ukulele, drums are parodies/interpretations of the original songs. You may use it for private study, scholarship, research or language learning purposes only