» » »

Parov Stelar - For All We Know Bass

Artists:  A B C D E F G H I J K L M N O P Q R S T U V W X Y Z # 

For All We Know Bass

(ver. 1) Click to play this song!
Parov Stelar
 Rating:
4/5 (4 votes)

 For All We Know lessons Tabs too difficult? Try these video lessons and learn fast
 
                
G----------------0----------------------------------0-0-----------|
D--0--2-2--2------2-2--2----0--2-2--2-----4-2-2--2---0------------|
A------------0------------------------0-----------------0-0---0-0-|
E-----------------------------------------------------------------|


G-----------------------------------------|
D-----------------------------------------|
A--0-0---0-0----2-2---2-2-0----2-2---2-2--|
E-----------------------------------------|

That's the whole thing!
            
Submit corrections


        For All We Know lessons Hard to play? Try these video lessons and learn fast For All We Know lessons
        
↑ Back to top | Tablatures and chords for acoustic guitar and electric guitar, ukulele, drums are parodies/interpretations of the original songs. You may use it for private study, scholarship, research or language learning purposes only