Home » P » Parokya Ni Edgar »

Parokya Ni Edgar - Sing Tabs

Artists:  A B C D E F G H I J K L M N O P Q R S T U V W X Y Z # 

Sing Tabs

(ver. 1) Click to play this song!
Parokya Ni Edgar
Tuning: Standard
Intro Guitar 1 (Chito/Acoustic): Em - D - C - D 3x  Am 

Guitar 2: Darius (Lead/Acoustic)

e|---8-7-8-10/12-10-8p7-7-8p7-8/10-(3x)--7h8-7-5-7-5-3-5p0-------------------|
B|---------------------------------------------------------------------------|
G|---------------------------------------------------------------------------|
D|---------------------------------------------------------------------------|
A|---------------------------------------------------------------------------|
E|---------------------------------------------------------------------------|

Verse 1: Em - D - C - D
Guitar 1 (Chito/Acoustic)

Em           D          C
Speak and be heard
   D            Em D C D
Or don't and regret
Em           D        C
It's easier said than done
        D       Em D C D
But things left unsaid

Em                D      C      D
They rot and they fester inside you
Em   D        C         D
Turn you into someone
        Em      D       C
You despise altogether
   D                Em D C D
So please don't you fret

        Am    C
Because I.... have a solution
        Am
This is just a suggestion
        C          D
But it works, for me

Chorus 1: 2x
     G
Just sing
        C
Like you never have before
        Am      
Let your voice blow down the door
        C
And then you'll be heard
     G
Just sing
        C
Like you never have before
        Am
Let your voice blow down the door
        C
And then you'll be better
        Am                      D
Because then you'll be heard

Then..

Guitar 1 (Chito/Acoustic)

Em - D - C - D 3x  Am 

Guitar 2 Distorion ( Darius/Lead)

e|---8-7-8-10/12-10-8p7-7-8p7-7-8/10b-(3x)--7-8-7-5-7-5-3-5p0----------------|
B|---------------------------------------------------------------------------|
G|---------------------------------------------------------------------------|
D|---------------------------------------------------------------------------|
A|---------------------------------------------------------------------------|
E|---------------------------------------------------------------------------|
 
Guitar 3 Distortion (Rico/Fill)

e|---------------------------------------------------------------------------|
B|---------------------------------------------------------------------------|
G|---------------------------------------------------------------------------|
D|---10-9-10-12/14-12-10p9-9--10p9-9-9/12b-(3x)--9-10-9-7-9-7-9-2------------|
A|---------------------------------------------------------------------------|
E|----------- ---------------------------------------------------------------|


Guitar 4 (Gab/Rhythm)

e|------------------------|   |-------------|
B|------------------------|   |-------------|
G|---999-7777-555555/7----|3x |-------------|
D|---999-7777-555555/7----|   |--7777777777-|
A|---777-5555-333333/5----|   |--7777777777-|
E|---000------------------|   |--5555555555-|




Verse 2: 
--------

Guitar 1 ( Chito/Acoustic)-Em- D - C - D

The world may be cruel
But that doesn't mean everybody is too 
I'm sure that you'll see
That it ain't half as bad as it might seem to be

Guitar 2&4( Darius/Gab)
e|-----------------------------------|  
B|-----------------------------------|  
G|-----9------7---7------5----5/7----|4x 
D|-----9------7---7------5----5/7----|  
A|-----7------5-5-5---33-3-33-3/5----|  
E|--00---00--------------------------|  
    ..   ..     .     ..   ..         . palm mute


Guitar 1 ( Chito/Acoustic) Am - C - Am - C - D
Though at times
No matter how hard you try
And it still makes you cry
Take the time to breathe

Guitar 2&4( Darius/Gab)

e|--------------------------------------|
B|--------------------------------------|
G|-----------5---------------5-----7----|
D|--7--------5--16x--7-------5-8x--7--8x|
A|--7--16x---3-------7--16x--3-----5----|
E|--5----------------5------------------|


------------
Chorus 2: 2x

Guitar 2 (Darius/Lead fill)

e|---------------------------------------------------------------------------|
B|---------12-13---15-15-15-13-13-13-12-12-12-13-----------------------------|
G|---13-15--------------------------------------12---------------------------|8x
D|---------------------------------------------------------------------------|
A|---------------------------------------------------------------------------|
E|---------------------------------------------------------------------------|

e|---------------------------------------------------------------------------|
B|---------12-13---15-15-15-13-13-13-12-12-12-13----------15\----------------|
G|---13-15---------------------------------------14-12-14--------------------|
D|---------------------------------------------------------------------------|
A|---------------------------------------------------------------------------|
E|---------------------------------------------------------------------------|

Guitar 1: Chito/Acoustic
     G
Just sing
        C
Like you never have before
        Am      
Let your voice blow down the door
        C
And then you'll be heard
     G
Just sing
        C
Like you never have before
        Am
Let your voice blow down the door
        C
And then you'll be better
        Am                      D
Because then you'll be heard

Bagsakan:
Guitar 1 Chito/Acoustic
Bb - Eb - C - Eb 
F-F#- G

Guitar 2: Darius/Solo Lead
e|-------------------------------------------------------------------------------------------------|
B|----------------3h4p3--------------3h4p3----9b-7-------------------------------------------------|
G|--3333-5-7---3h5------5-3-------3h5-----5-3-----7h9p7--------------------------------------------|
D|--3333-5-7---------------5b---------------------------9-7--6-8-6-8-6-8-6-8-8-10-8-10-8-10-11-12--|
A|--1111-3-5---------------------------------------------------------------------------------------|
E|-------------------------------------------------------------------------------------------------|


Guitar 3: Rico/Solo Lead/ Octave
e|--------------------------------------------------------------------------------------------------|
B|--------------------------------------------------------------------------------------------------|
G|------------------7h8p7--------------7h8p7------13b-11-7h9p7--------------------------------------|
D|--8888-10-12--8h10------8-10-----8h10------8-10--------------9-7---88888888-101010--11---12-------|
A|--8888-10-12---------------10b-------------------------------------88888888-101010--11---12-------|
E|--6666-8--10-------------------------------------------------------66666666--8888----9---10-------|

Guitar 4: Gab/Rhytym

e|---------------------------------------------------------------------------|
B|---------------------------------------------------------------------------|
G|-33333333--10101010--55555555----------------------------------------------|
D|-33333333--10101010--55555555--101010--3333--3-5---------------------------|
A|-11111111--88888888--33333333---8888---3333--3-5---------------------------|
E|---------------------------------------1111--2-3---------------------------|

Repeat Chorus 2: 2x
-------------------
Ending Chorus 2x

Guitar 1: Chito/Acoustic
     G
Just sing
        C
Like you never have before
        Am      
Let your voice blow down the door
        C
And then you'll be heard
     G
Just sing
        C
Like you never have before
        Am
Let your voice blow down the door
        C
And then you'll be better
        Am                      D
Because then you'll be heard

G - C - Am - C - D (part na ngumite si darius hehe)

End with G let ring
            
Submit corrections

↑ Back to top | Tablatures and chords for acoustic guitar and electric guitar, ukulele, drums are parodies/interpretations of the original songs. You may use it for private study, scholarship, research or language learning purposes only