Home » P » Parokya Ni Edgar »

Parokya Ni Edgar - Silvertoes Bass

Artists:  A B C D E F G H I J K L M N O P Q R S T U V W X Y Z # 

Silvertoes Bass

(ver. 2) Click to play this song!
Parokya Ni Edgar
Silvertoes
Parokya ni Edgar

I(Drums)
Wag ka nang mag-alala
hinding hindi ako in love sa yo
bakit ba pakiramdam mo pa yata
lahat kami ay naaakit mo
miss miss pakitigil lang please
ang iyong pagpapantasya
hindi ka na nakakatuwa
papagulpi na kita sa gwardyang may batuta

G-Em-C-D
Hay ya ya ya.
|----------------4----------------------------------------------------|
|-------5-4-0-2-----2--4-4h5-4----------------------------------------|
|------------------------------------5--3-------3-----5------5--------|
|-3-----------------------------------------55-----3-----55----5------|
G-Em-C-D
|----------------4----------------------------------------------------|
|-------5-4-0-2-----2--4-4h5-4---------------------------5-4----------|
|------------------------------------5--3-------3-----5-5-------------|
|-3-----------------------------------------55-----3------------------|

II.
G-Em-C-D
Hindi ko talaga ma-gets kung bakit ka ganyan
|----------------4----------------------------------------------------|
|-------5-4-0-2-----2--4-4h5-4----------------------------------------|
|------------------------------------5--3-------3-----5------5--------|
|-3-----------------------------------------55-----3-----55----5------|
G-Em-C-D
Ang feeling moy sabik sa iyo ang lahat ng kalalakihan
|----------------4----------------------------------------------------|
|-------5-4-0-2-----2--4-4h5-4----------------------------------------|
|------------------------------------5--3-------3-----5------5--------|
|-3-----------------------------------------55-----3-----55----5------|
G-Em-C-D
Sorry pagpasensyahan mo na, mali talaga ang iyong inaakala
|----------------4----------------------------------------------------|
|-------5-4-0-2-----2--4-4h5-4----------------------------------------|
|------------------------------------5--3-------3-----5------5--------|
|-3-----------------------------------------55-----3-----55----5------|
G-Em-C-D
Lahat kami at nandidiri sa iyo, ikaskas mo na sana ang mukha sa simento
|----------------4----------------------------------------------------|
|-------5-4-0-2-----2--4-4h5-4---------------------------5-4----------|
|------------------------------------5--3-------3-----5-5-------------|
|-3-----------------------------------------55-----3------------------|

III
Em-C-G-D
Di kami na te-turn-on, sa kutis mong kulay champorado
|------------------5------------7---------------------------|
|-2--------0----5----5-----0-5-----5------------------------|
|----2--------3------------------------5---------5----------|
|-------3---------------3------------------5-55-----5-------|
Em-C-G-D
Di kami naakit, sa labi mong garabucho
|------------------5------------7---------------------------|
|-2--------0----5----5-----0-5-----5------------------------|
|----2--------3------------------------5---------5----------|
|-------3---------------3------------------5-55-----5-------|
IV
G-Em-C-D
O please naman pakitanggap mo na lang ang katotohanan na
|----------------4----------------------------------------------------|
|-------5-4-0-2-----2--4-4h5-4----------------------------------------|
|------------------------------------5--3-------3-----5------5--------|
|-3-----------------------------------------55-----3-----55----5------|
G-Em-C-D
Ganyan ka pinanganak, wag ka ng magpapanggap
|----------------4----------------------------------------------------|
|-------5-4-0-2-----2--4-4h5-4----------------------------------------|
|------------------------------------5--3-------3-----5------5--------|
|-3-----------------------------------------55-----3-----55----5------|
G-Em-C-D
Na ikaw ay isang dalagang ubod ng ganda
|----------------4----------------------------------------------------|
|-------5-4-0-2-----2--4-4h5-4----------------------------------------|
|------------------------------------5--3-------3-----5------5--------|
|-3-----------------------------------------55-----3-----55----5------|
G-Em-C-D
Kahit na alam naman natin na ang karakas mo ay ubod ng sama
|----------------4----------------------------------------------------|
|-------5-4-0-2-----2--4-4h5-4----------------------------------------|
|------------------------------------5--3-------3-----5------5--------|
|-3-----------------------------------------55-----3-----55----5------|

Instrumental
G-Em-C-D
|----------------4----------------------------------------------------|
|-------5-4-0-2-----2--4-4h5-4----------------------------------------|
|------------------------------------5--3-------3-----5------5--------|
|-3-----------------------------------------55-----3-----55----5------|
G-Em-C-D
|----------------4----------------------------------------------------|
|-------5-4-0-2-----2--4-4h5-4---------------------------5-4----------|
|------------------------------------5--3-------3-----5-5-------------|
|-3-----------------------------------------55-----3------------------|
Em-C-G-D
|------------------5------------7---------------------------|
|-2--------0----5----5-----0-5-----5------------------------|
|----2--------3------------------------5---------5----------|
|-------3---------------3------------------5-55-----5-------|
Em-C-G-D
|------------------5------------7---------------------------|
|-2--------0----5----5-----0-5-----5------------------------|
|----2--------3------------------------5---------5----------|
|-------3---------------3------------------5-55-----5-------|
V
G-Em-C-D
Siguro nga naman ay may mga mas pangit pa sa’yo
|----------------4----------------------------------------------------|
|-------5-4-0-2-----2--4-4h5-4----------------------------------------|
|------------------------------------5--3-------3-----5------5--------|
|-3-----------------------------------------55-----3-----55----5------|
G-Em-C-D
Pero at least hindi sila nagpapacute katulad mo
|----------------4----------------------------------------------------|
|-------5-4-0-2-----2--4-4h5-4----------------------------------------|
|------------------------------------5--3-------3-----5------5--------|
|-3-----------------------------------------55-----3-----55----5------|
G-Em-C-D
Nakaka-bad trip k, nakakairita tuwing kita’y nakikita
|----------------4----------------------------------------------------|
|-------5-4-0-2-----2--4-4h5-4----------------------------------------|
|------------------------------------5--3-------3-----5------5--------|
|-3-----------------------------------------55-----3-----55----5------|
G-Em-C-D
Di ko alam bat ang laki ng ulo mo, magingat ingat ka baka ikaw ay sagasaan ko
|----------------4----------------------------------------------------|
|-------5-4-0-2-----2--4-4h5-4---------------------------5-4----------|
|------------------------------------5--3-------3-----5-5-------------|
|-3-----------------------------------------55-----3------------------|
Repeat III
Repeat IV 2X

G-Em-C-D
Ha ya ya ya.
|----------------4-----------------------------------------------------|
|-------5-4-0-2-----2--4-4h5-4-----------------------------------------|
|------------------------------------5--3-------3-----5------5---------|
|-3-----------------------------------------55-----3-----55----5----3--|
            
Submit corrections

↑ Back to top | Tablatures and chords for acoustic guitar and electric guitar, ukulele, drums are parodies/interpretations of the original songs. You may use it for private study, scholarship, research or language learning purposes only