» » »

Parokya Ni Edgar - How To Make A Love Song Tabs

Artists:  A B C D E F G H I J K L M N O P Q R S T U V W X Y Z # 

How To Make A Love Song Tabs

(ver. 3) Click to play this song!
Parokya Ni Edgar
 Rating:
4/5 (4 votes)

 How To Make A Love Song lessons Tabs too difficult? Try these video lessons and learn fast
 
                Song Title : How to make a love song
Band : Parokya ni Edgar
Tuning : Standard (EADGBe)

----------------------------------------------------------------------------

Chords: *Tama ung Ver2 ng Chords, may dinagdag lang ako ng ilang chords


  Dsus2    Asus2  Dsus4

e|-0--  |----|  |-3-|
B|-3--  |-0--|  |-3-|
G|-2--  |-2--|  |-2-|
D|----  |-2--|  |---|
A|----  |----|  |---|
E|----  |----|  |---|


Verse : D   -   Bm   -   Em   -   A-Asus2-A  (2 Times)

Pre-Chorus : G    -   D - Dsus2 - D
             G    -   D - Dsus4 - D
             G    -   D - Dsus2 - D
             Em   -   D
Chorus :
*May mga part dito na gumagamit ung gitarista ng Dsus bawat tapos ng D, kayo nalang kumapa. :D

Bm -  A-Asus2-A
Bm -  A-Asus2-A
Em -  A - Bm -  D
G  -  D - Em -  D


Solo:
*Yung Solo, kinuha lang sa D Major Scale :)

e|--------7-5----------------------5------------------------------------|
B|------------7---5---8-7-5--------5------------------------------------|
G|---7--------------7-------7-6----6------------------------------------|
D|-7---7------------------------7---------------------------------------|
A|----------------------------------------------------------------------|
E|----------------------------------------------------------------------|

e|-------------------------15-14-12-------------------------------------|
B|--------8--8/10-----14-15----------15-15s17---------------------------|
G|---7----7--7/9-------------------------------14s16-14-----------------|
D|-7--7-----------------------------------------------------------------|
A|----------------------------------------------------------------------|
E|----------------------------------------------------------------------|

e|-12-14-15------------------------------------------------------------- -|
B|----------12-14-15----------------------------------------------------  |
G|-------------------11-12-14----12-------------------------------------  |x2
D|----------------------------12----------------------------------------  |
A|----------------------------------------------------------------------  |
E|---------------------------------------------------------------------- -|

e|-12-14-15---------------------------15-14-12-------17----17----17-----17-|
B|----------12-14-15---------------12----------15-15----15----15----15-----|
G|-------------------11-12-14----------------------------------------------|
D|----------------------------12-------------------------------------------|
A|-------------------------------------------------------------------------|
E|-------------------------------------------------------------------------|

*Pagtapos ng Solo, babalik lang ulit sa chords/strumming :D Yun lang , salamat, Pakisabi 
kung may mali, pero sana tama na yan
            
Submit corrections


        How To Make A Love Song lessons Hard to play? Try these video lessons and learn fast How To Make A Love Song lessons
        
↑ Back to top | Tablatures and chords for acoustic guitar and electric guitar, ukulele, drums are parodies/interpretations of the original songs. You may use it for private study, scholarship, research or language learning purposes only