» » »

Parkway Drive - Emotional Breakdown Tabs

Artists:  A B C D E F G H I J K L M N O P Q R S T U V W X Y Z # 

Emotional Breakdown Tabs

(ver. 2) Click to play this song!
Parkway Drive
 Rating:
4/5 (4 votes)


 Emotional Breakdown lessons Tabs too difficult? Try these video lessons and learn fast
 
                Yea hows it going

This is my first tab but i figured the song was worth taking the time to
write, its off Don't Close Your Eyes and later featured in the
Byron Bay hardcore compilation, What We've Built(split EP with I Killed The Prom Queen).

The song is fairly easy in my opinion, especially for a Parkway song, but is so heavy 
it sounds awesome to play and doesn't require much skill

Its in Drop B like most, probably all Parkway songs

For those who want to be pedantic, its C tuning with the C dropped to B

Key:
* - Full Mute
x - Fully Muted Strum

INTRO

[------------------------]
[------------------------]
[------------------------]
[-15---17---14---15------]
[-15---17---14---15------]
[-15---17---14---15------]

and you need another guitar to play this at the same time

[------------------------]
[------------------------]
[------------------------]
[-3---5---2---3----------]
[-3---5---2---3----------]
[-3---5---2---3----------]

Drum Fill then

Both guitars play the same thing from here on until the end

Verse

[------------------------------]
[------------------------------]  x12 (the first and third bars are with
[------------------------------]  less treble and more bass, the second and
[------------------------------]  fourth bars are with more treble and less
[-0-0--9--7--5--4--0--4--02----]  bass, the following 8 bars are with equal
[-0-0--9--7--5--4--0--4--02----]  amounts of both treble and bass)

Chorus

[------------------------]
[------------------------]
[------------------------] x4
[-7-8---5-8---7----------]
[-7-8---5-8---7----------]
[-7-8---5-8---7----------]

"If I Could" Bit

[-----------------------------------------------------------]
[-----------------------------------------------------------]
[-----------------------------------------------------------] x8
[----------------------------------------------------------8]
[-0-0-0---0-0---0---0-0---0-0-----000---0-0---0---0-0--0-0-8]
[-0-0-0---0-0---0---0-0---0-0-----000---0-0---0---0-0--0-0-8]
       *     *   *     *     *       *     *   *     *      *

Verse

[------------------------------]
[------------------------------]
[------------------------------] x4
[------------------------------]
[-0-0--9--7--5--4--0--4--02----]

"If I Could" Breakdown Bit 2

[------------------------------]
[------------------------------]
[------------------------------] x6
[-0000----0000-----------------]
[-0000----0000-----------------]

"Just To Remind Me" Breakdown Bit

[-----------------------------------]
[-----------------------------------]
[-------8--------8--0--8-7----------] x8
[-0000--8--0000--8--0--8-7----------]
[-0000--8--0000--8--0--8-7----------]
      *        *
"One Last Sunset" Outro Bit

[----------------------------------]
[----------------------------------]
[--8-7---7-5---8-7---7-5---x-5-----] x8
[--8-7---7-5---8-7---7-5---x-5-----]
[--8-7---7-5---8-7---7-5---x-5-----]

Intro Again

[------------------------]
[------------------------]
[------------------------]
[-15---17---14---15------]
[-15---17---14---15------]
[-15---17---14---15------]

and the second guitarist plays this at the same time

[------------------------]
[------------------------]
[------------------------]
[-3---5---2---3----------]
[-3---5---2---3----------]
[-3---5---2---3----------]

Thanks, Ill update soon, I'm pretty sure the intro riff has another guitar playing 
instead

By Connor. Comment if you have anything to add.
            
Submit corrections



        Emotional Breakdown lessons Hard to play? Try these video lessons and learn fast Emotional Breakdown lessons
        
↑ Back to top | Tablatures and chords for acoustic guitar and electric guitar, ukulele, drums are parodies/interpretations of the original songs. You may use it for private study, scholarship, research or language learning purposes only