» » »

Parkway Drive - Carrion Bass

Artists:  A B C D E F G H I J K L M N O P Q R S T U V W X Y Z # 

Carrion Bass

(ver. 1) Click to play this song!
Parkway Drive
 Rating:
4/5 (11 votes)
    Carrion lessons Tabs too difficult? Try these video lessons and learn fast
                This is the bass tab for the song Carrion by Parkway Drive
The start follows the guitar mainly on the B string. This is my first tab so plz rate me 
how it is. I think everything is correct.
Bass comes in after Winston screams "Carrion".
~ = let it ring

INTRO/CHORUS (Distorted part)
E |-----------------------------------------|
B |-----------------------------------------|x2
F#|-----------------------------------------|
B |-3~-------0-------7~-------5-------------|

VERSE 1
E |-------|---------------------------------|
B |-------|---------------------------------|x3
F#|-------|-8-----7---8-5-----8---5---------|
B |-0-0-0-|--0-0---0-0---0-0----0---0-10----|

VERSE 2
E |----------------------------|
B |----------------------------|x4
F#|-8-----8---8-5--------------|
B |---0-0---0------0-000--8----|

E |---------------------------------|
B |---------------------------------|x4
F#|-8-----7---8-5-----8---5---------|
B |--0-0---0-0---0-0----0---0-10----|

CHORUS 1
E |-----------------------------------------|
B |-----------------------------------------|x2
F#|-----------------------------------------|
B |-3~-------0-------7~-------5-------------|

VERSE 3
E |----------------------------|
B |----------------------------|x4
F#|-8-----8---8-5--------------|
B |---0-0---0------0-000--8----|

CHORUS 2
E |-----------------------------------------|
B |-----------------------------------------|x4
F#|-----------------------------------------|
B |-3~-------0~-------7~-------5~-----------|

VERSE 4
E |-----------------------------------------|
B |-----------------------------------------|x4
F#|-----------------------------------------|
B |-10200-----10200-----10200-----10200-----|

CHORUS 3
E |----------|-----------------------------------------|
B |----------|-----------------------------------------|
F#|----------|-----------------------------------------|
B |7~------5~|-3~-------0-------7~-------5-------------|

ENDING
E |-----------------------------------------|
B |-----------------------------------------|x5
F#|-----------------------------------------|
B |-0-545----0-757----0-878----0-757--------|
            
Submit corrections

↑ Back to top | Tablatures and chords for acoustic guitar and electric guitar, ukulele, drums are parodies/interpretations of the original songs. You may use it for private study, scholarship, research or language learning purposes only