Home » P » Papon »

Papon - Humnava Tabs

Artists:  A B C D E F G H I J K L M N O P Q R S T U V W X Y Z # 

Humnava Tabs

(ver. 1) Click to play this song!
Papon
 Rating:
3.7/5 (23 votes)
                E |-----------------------------7-7-10-8-7---------------------------7--------------------------|
B |------8-7-8--8-10------------------------------10-8-10-----------------------10-8-7----------|
G |---------------------------------------------------------------------------------------------|
D |-9-------------------------------------------------------------------------------------------|
A |---------------------------------------------------------------------------------------------|
E |---------------------------------------------------------------------------------------------|
Hey Humnava mujhe apna bana le

E |---------------------------------------------------------------------------|
B |-7-------7-------------7----7------------7-------------7-8-7---------------|
G |----9----------9------------------9-------------9-----------------7-9------|
D |---------------------------------------------------------------------------|
A |---------------------------------------------------------------------------|
E |---------------------------------------------------------------------------|
Sookhi padi dil ki iss zameen ko bhiga de

E |----------------------------------7-7-10-8-7---------------------------7-------------------|
B |-----------8-7-8--8-10------------------------------10-8-10-----------------------10-8-7---|
G |-9-----------------------------------------------------------------------------------------|
D |------9------------------------------------------------------------------------------------|
A |-------------------------------------------------------------------------------------------|
E |-------------------------------------------------------------------------------------------|
hmm.. hoon akela, zara haath badha de

E |-----------------------------------------------------------------------------|
B |-7-------7-------------7----7------------7-------------7-8-7-----------------|
G |----9----------9------------------9-------------9-----------------7-9--------|
D |-----------------------------------------------------------------------------|
A |-----------------------------------------------------------------------------|
E |-----------------------------------------------------------------------------|
Sookhi padi dil ki iss zameen ko bhiga de

E |------------7-----------------------------|
B |-----7-8-------10-8-10-8-10---------------|
G |-9----------------------------------------|
D |------------------------------------------|
A |------------------------------------------|
E |------------------------------------------|
Kab se main dar dar phir raha

E |------------7-8-10-8-10-8-7-----------------------7------------------|
B |-10-10----------------------------------10--------------------10-----|
G |---------------------------------------------------------------------|
D |---------------------------------------------------------------------|
A |---------------------------------------------------------------------|
E |---------------------------------------------------------------------|
Musaafir dil ko panaah de

E |------7-8-10-8-10-12-10-8-7------------------------10-10-8-------------------------7-8-----|
B |-10-----------------------------------------10------------------------------10-------------|
G |-------------------------------------------------------------------------------------------|
D |-------------------------------------------------------------------------------------------|
A |-------------------------------------------------------------------------------------------|
E |-------------------------------------------------------------------------------------------|
Tu awaargi ko meri aaj thehra de

E |----------------------------------------------------|
B |------8-7-8----10-10-7-7-----------------7----------|
G |---------------------------------------9------------|
D |-9--------------------------------------------------|
A |----------------------------------------------------|
E |----------------------------------------------------|
Ho sake toh thoda pyaar jataa de

E |---------------------------------------------------------------------------|
B |-7-------7-------------7----7------------7-------------7-8-7---------------|
G |----9----------9------------------9-------------9-----------------7-9------|
D |---------------------------------------------------------------------------|
A |---------------------------------------------------------------------------|
E |---------------------------------------------------------------------------|
Sookhi padi iss dil ki zameen ko bhiga de

E |-------7-10-9-7-9--------------7-7-7---7-----------------------|
B |-10----------------------10--------------------------10-8------|
G |---------------------------------------------------------------|
D |---------------------------------------------------------------|
A |---------------------------------------------------------------|
E |---------------------------------------------------------------|
Murjhaayi si shaakh pe dil ki

E |-7-10-9-7-9---------------7---------|
B |----------------------10------------|
G |------------------------------------|
D |------------------------------------|
A |------------------------------------|
E |------------------------------------|
Phool khilte hain kyun

E |-------7-10-9-7-9--------------7-7-7---7-----------------------|
B |-10----------------------10--------------------------10-8------|
G |---------------------------------------------------------------|
D |---------------------------------------------------------------|
A |---------------------------------------------------------------|
E |---------------------------------------------------------------|
Baat gulon ki zikr mehak ka

E |--------------8------------7-----------|
B |-7-8-10---------10---------------------|
G |---------------------------------------|
D |---------------------------------------|
A |---------------------------------------|
E |---------------------------------------|
Acha lagta hai kyun

E |-7-7---------------------------------------------------|
B |--------8-10-10---8------------------------8-8-8-------|
G |------------------------------------9------------------|
D |-------------------------------------------------------|
A |-------------------------------------------------------|
E |-------------------------------------------------------|
Un rango se tune milaaya

E |-7-7--------------------------------------------------|
B |--------8-10-10---8------------------------8-8-8------|
G |------------------------------------9-----------------|
D |------------------------------------------------------|
A |------------------------------------------------------|
E |------------------------------------------------------|
Jinse kabhi main mill na paaya

E |-7-7----------------10-8-10-8-7------|
B |--------8-10-10----------------------|
G |-------------------------------------|
D |-------------------------------------|
A |-------------------------------------|
E |-------------------------------------|
Dil karta hai tera shukriya

E |------------------------------------------|
B |-10-10-8-8-7-8----------------------------|
G |---------------------------7-9------------|
D |------------------------------------------|
A |------------------------------------------|
E |------------------------------------------|
Phir se bahaare tu laa de

E |----------------------------------------------------|
B |------8-7-8----10-10-7-7-----------------7----------|
G |---------------------------------------9------------|
D |-9--------------------------------------------------|
A |----------------------------------------------------|
E |----------------------------------------------------|
Dil ka soona banjar mehka de

E |---------------------------------------------------------------------------|
B |-7-------7-------------7----7------------7-------------7-8-7---------------|
G |----9----------9------------------9-------------9-----------------7-9------|
D |---------------------------------------------------------------------------|
A |---------------------------------------------------------------------------|
E |---------------------------------------------------------------------------|
Sookhi padi dil ki iss zameen ko bhiga de            
Submit corrections

↑ Back to top | Tablatures and chords for acoustic guitar and electric guitar, ukulele, drums are parodies/interpretations of the original songs. You may use it for private study, scholarship, research or language learning purposes only