» » »

Papinka - Dirimu Bukan Untukku Chords

Artists:  A B C D E F G H I J K L M N O P Q R S T U V W X Y Z # 

Dirimu Bukan Untukku Chords

(ver. 1) Click to play this song!
Papinka
 Rating:
4/5 (4 votes)

 Dirimu Bukan Untukku  lessons Tabs too difficult? Try these video lessons and learn fast
 
                Tuning: Standard

Intro: A E F#m C#m D C#m F Bm E
e|---------------------------------------------------------------------------|
B|----------------5/7-5--7-9-9/10-9-10-7\5-5---------------5/7---------------|
G|-4/6\4--2-4-4/6------------------------------5/7-6-7-6-7-----6-------------|
D|---------------------------------------------------------------------------|
A|---------------------------------------------------------------------------|
E|---------------------------------------------------------------------------|

e|---------------------------------------------------------------------------|
B|-----------------5/7-------------------------------------------------------|
G|-2-4-6-6/7-6-7-------4-4---------------------------------------------------|
D|---------------------------------------------------------------------------|
A|---------------------------------------------------------------------------|
E|---------------------------------------------------------------------------|

A                 C#m
Andai kau dapat…..rasakan hatiku
D                Bm
Rasa cintaku padamu..
Bm             C#m
Kau yang slalu menduakanku
     D               E
Sungguh terluka hatiku..

A               C#m
Sekian lama….ku memendam rasa
D                   Bm
Rasa hati yang terluka
Bm        C#m
Tapi bila kau bahagia
  D               E
Rela ku melepaskanmu..

D                  C#m
Karna cinta dalam hatimu
Bm                     A       C#m
Semua itu memang bukanlah untukku
D                      C#m  F#m
Bahagialah slalu dalam hidup…mu
Bm                 E
Bila kau mencintainya…

Reff:
          A         E
    Tak bisa ku melupakanmu
       F#m              C#m
    Diriku yang menyayangimu
             D                C#m  F#m
    Kau yang dulu… yang slalu ku… rindu
        Bm                  E
    Dirimu bukanlah yang dulu

           A          E
    Tak pernah ku melupakanmu
    F#m                  C#m
    Diriku yang mencintaimu
             D           C#m    F#m
    Semoga slalu bahagia hidup..mu
        Bm               E
    Dirimu bukanlah untukku...

A                C#m
Sekian lama….ku memendam rasa
  D                 Bm
Rasa hati yang terluka
Bm         C#m
Tapi bila kau bahagia
  D               E
Rela ku melepaskanmu..

D                     C#m
Karna cinta dalam hatimu
Bm                     A       C#m
Semua itu memang bukanlah untukku
D                      C#m    F#m
Bahagialah slalu dalam hidup…mu
Bm                E
Bila kau mencintainya…

Int : D A Bm C#m D

Kembali ke : Reff

Outro : D E A             
Submit corrections


        Dirimu Bukan Untukku  lessons Hard to play? Try these video lessons and learn fast Dirimu Bukan Untukku  lessons
        
↑ Back to top | Tablatures and chords for acoustic guitar and electric guitar, ukulele, drums are parodies/interpretations of the original songs. You may use it for private study, scholarship, research or language learning purposes only