Home » P » Papercuts »

Papercuts - Future Primitive Chords

Artists:  A B C D E F G H I J K L M N O P Q R S T U V W X Y Z # 

Future Primitive Chords

(ver. 1) Click to play this song!
Papercuts
[Intro]
Bm D x2
 
[Verse 1]
      Bm
I'm a soldier in the world
          D
But we'll leave it all someday
           Bm
What's the use in trying to hide
         D
Where we came from anyway?
       Bm
We are born to this world
       D
Out on known from the beyond
          Bm
When it's time to return
             D
You won't be looking in the mirror
 
[Chorus]
Bm          D
Future primitive
Bm
The ones you left behind
          D
Are still with you, my dear
    Bm          D
The life of our dirt
       Bm
We are here and we're gone
         D
It's our work that marches on
 
[Instrumental]
Bm D Bm D
A    D
 
[Vocal melody on guitar]
E|------------------------------------------|
B|----------3-------------------------------|
G|---2--4------4-2-------2------------------|
D|4----------------4-2-4---4-2-4------------|
A|------------------------------------------|
E|------------------------------------------|
 
Same melody second time around except for the 0 on D at the end
E|------------------------------------------|
B|----------3-------------------------------|
G|---2--4------4-2-------2------------------|
D|4----------------4-2-4---4-2-0------------|
A|------------------------------------------|
E|------------------------------------------|
 
[Verse 2]
         Bm
Well, we cross the river once
          D
And we'll do it once again
    Bm
The valley, it will open
        D
And the mountains will fall to their knees
         Bm
Take the girl from the parents
    D
And leave the rest behind
         Bm
What you wanted was your life
             D
Well, you'll get something more
 
[Chorus]
Bm          D
Future primitive
    Bm
The ones you left behind
          D
Are still with you, my dear
    Bm          D
The life of our dirt
       Bm
We are here and we're gone
         D
It's our work that marches on
 
[Outro]
Bm D Bm D x4
            
Submit corrections

↑ Back to top | Tablatures and chords for acoustic guitar and electric guitar, ukulele, drums are parodies/interpretations of the original songs. You may use it for private study, scholarship, research or language learning purposes only