» » »

Papa Roach - Time Is Running Out Tabs

Artists:  A B C D E F G H I J K L M N O P Q R S T U V W X Y Z # 

Time Is Running Out Tabs

(ver. 3) Click to play this song!
Papa Roach
 Rating:
4/5 (4 votes)


 Time Is Running Out lessons Tabs too difficult? Try these video lessons and learn fast
 
                Band- Papa Roach
Song- Time Is Running Out
Album- The Paramour Sessions (2006)

Here's one of my first tabs in a long time, here it is:

Tuning: DADGBE

Intro/Bridge (Light Distortion)
|----------------------------------------------------|
|----------------------------------------------------|
|-10--10-10-10--10-10-10--10-10-2--2-2-2--2-2-2--2-2-|
|-10--10-10-10--10-10-10--10-10-2--2-2-2--2-2-2--2-2-|
|-8---8--8--8---8--8--8---8--8--0--0-0-0--0-0-0--0-0-|
|----------------------------------------------------|

End with
|---------|
|---------|
|-12~~~~~-|
|-12~~~~~-|
|-10~~~~~-|
|---------|

Chorus
|--------------------------------------------------------------------------|
|--------------------------------------------------------------------------|
|-10-10-10--10-10-10--12-12-12--12-12-12-----------------------------------|
|-10-10-10--10-10-10--10-10-10--10-10-10--7-7-7--7-7-7--10-10-10--10-10-10-|
|-8--8--8---8--8--8---10-10-10--10-10-10--5-5-5--5-5-5--7--7--7---7--7--7--|
|-----------------------------------------5-5-5--5-5-5--7--7--7---7--7--7--|

Verse
|------------------------------------------|
|------------------------------------------|
|-10-10-10--10-10-10-----------------------|
|-10-10-10--10-10-10----10-10-10--10-10-10-|
|-8--8--8---8--8--8-----7--7--7---7--7--7--|
|-----------------------7--7--7---7--7--7--|

End with (Guitar 1)      End with (Guitar 2)
|-------|                |--------|
|-------|                |--------|
|-------|                |-12~~~~-|
|-5~~~~-|                |-12~~~~-|
|-5~~~~-|                |-10~~~~-|
|-5~~~~-|                |--------|

Play Chorus

Play Verse

Play Chorus

Play Intro

Bridge (Guitar 2)- he does this very quietly in the background.
|-----------------------------|
|-----------------------------|
|-10~---10-8-7-10---10-8-7-10-|
|-----------------------------| Keeps repeating, my be a few variations here
|-----------------------------| and there, but basically this is it.
|-----------------------------|

Play Chorus

Final Chorus Variation (Guitar 1)
|--------------------------------------------------------------|
|--------------------------------------------------------------|
|--------------------------------------------------------------|
|-3-3-3--3-3-3--10-10-10--10-10-10--7-7-7--7-7-7--7-7-7--7-7-7-|
|-3-3-3--3-3-3--7--7--7---7--7--7---5-5-5--5-5-5--5-5-5--5-5-5-|
|-3-3-3--3-3-3--7--7--7---7--7--7---5-5-5--5-5-5--5-5-5--5-5-5-|

Final Chorus Variation (Guitar 2)-lightly palm muted
|----------------------------------|
|----------------------------------|
|---554455--554455--554455--557755-|
|-55------55------55------55-------|
|----------------------------------|
|----------------------------------|

Ending (Guitar 1)
|--------------|
|--------------|
|--------------|
|-7~---10~~~~~-|
|-5~---7~~~~~~-|
|-5~---7~~~~~~-|

Ending (Guitar 2)
|--------------|
|--------------|
|-7~---9~~~~~~-|
|--------------|
|--------------|
|--------------|

This should be perfect, Papa Roach does not have 2 guitarists, he just overdubs in the 
Who knows, maybe I'll tab some more Papa Roach soon. Be on the lookout.
            
Submit corrections



        Time Is Running Out lessons Hard to play? Try these video lessons and learn fast Time Is Running Out lessons
        
↑ Back to top | Tablatures and chords for acoustic guitar and electric guitar, ukulele, drums are parodies/interpretations of the original songs. You may use it for private study, scholarship, research or language learning purposes only