» » »

Papa Roach - Stop Looking Start Seeing Tabs

Artists:  A B C D E F G H I J K L M N O P Q R S T U V W X Y Z # 

Stop Looking Start Seeing Tabs

(ver. 2) Click to play this song!
Papa Roach
 Rating:
4/5 (4 votes)


 Stop Looking Start Seeing lessons Tabs too difficult? Try these video lessons and learn fast
 
                i know 100% sure that this tab is correct, it's my first tab and don't watch my englisch
because i'm from holland
tuning:from high to low D#
                        A#
                        G#
                        C#
                        G#
                        C#

first part
1|-----------------------------------------------------------------------|
2|-----------------------------------------------------------------------|
3|-----------------------------------------------------------------------|2x
4|0h2--------0h2---12-14-------------------------------------------------|
5|0h2--------0h2---12-14-------------------------------------------------|
6|0h2--------0h2---12-14-------------------------------------------------|

second part, palm mute some bits
1|----------------------------------------------------------------------|
2|----------------------------------------------------------------------|
3|----------------------------------------------------------------------|4x
4|0h2-5p4---------------------------------------------------------------|
5|0h2----5h7-7-7-7-7-5-5-5-5-------10-10-10-10-9-9-9-9-5-5-5-5----------|
6|0h2-----------------------5-5-5-5-------------------------------------

third part
1|----------------------------------------------------------------------|
2|----------------------------------------------------------------------|
3|12--11-7--9---------12--11-4--7---------------------------------------|1x
4|10--9--5--7---------10--9--2--5-----2-3---2-3-------------------------|
5|10--9--5--7---------10--9--2--5-----2-3---2-3-------------------------|
6|10--9--5--7---------10--9--2--5-----2-3---2-3-------------------------

return to second part 

fourth part, palm mute some bits
1|---------------------------------------------------------------------|
2|---------------------------------------------------------------------|
3|---------------------------------------------------------------------|1x
4|0h2-2-2-------0h2-2-2-0h2-2-2----------------------------------------|
5|0h2-2-2-------0h2-2-2-0h2-2-2----------------------------------------|
6|0h2-2-2-------0h2-2-2-0h2-2-2----------------------------------------

return to third part

little solo
1|---------------------------------------------------------------------|
2|---------------------------------------------------------------------|
3|------5-4----------------------5-4-----------------------------------|2x
4|----5-------5-5-7-7-5--------5-------5-5-7-7-5-7---------------------|
5|5-7-------7-----------7--5-7-------7---------------------------------|
6|---------------------------------------------------------------------|

fifth part, palm mute some bits
1|---------------------------------------------------------------------|
2|---------------------------------------------------------------------|
3|---------------------------------------------------------------------|1x
4|0h2-2-2-2-2-2-2-2-2-2-2-0h2-2-2-0h2-2-2-2-2-2-2-2-2-2-2-0h2-2-2------|
5|0h2-2-2-2-2-2-2-2-2-2-2-0h2-2-2-0h2-2-2-2-2-2-2-2-2-2-2-0h2-2-2------|
6|0h2-2-2-2-2-2-2-2-2-2-2-0h2-2-2-0h2-2-2-2-2-2-2-2-2-2-2-0h2-2-2------|

then the little solo again

sixth part
1|--------------------------------------------------------------------|
2|--------------------------------------------------------------------|
3|--------------------------------------------------------------------|
4|0h2-2-2-2-2---0h2-2-2-0h2-2-2---7-7-7-7-9-9-9-9---------------------|
5|0h2-2-2-2-2---0h2-2-2-0h2-2-2---7-7-7-7-9-9-9-9---------------------|
6|0h2-2-2-2-2---0h2-2-2-0h2-2-2---7-7-7-7-9-9-9-9---------------------|

then the third part again but instead of 2-3, you play:
4|10-10-10-9-5-5
5|10-10-10-9-5-5
6|10-10-10-9-5-5

and after that you play the whole third part
and then the sixth part without the 7-7-7-7-9-9-9-9 at the end, but you could better
listen to the song for that part
            
Submit corrections



        Stop Looking Start Seeing lessons Hard to play? Try these video lessons and learn fast Stop Looking Start Seeing lessons
        
↑ Back to top | Tablatures and chords for acoustic guitar and electric guitar, ukulele, drums are parodies/interpretations of the original songs. You may use it for private study, scholarship, research or language learning purposes only