» » »

Papa Roach - Singular Indestructible Droid Bass

Artists:  A B C D E F G H I J K L M N O P Q R S T U V W X Y Z # 

Singular Indestructible Droid Bass

(ver. 1) Click to play this song!
Papa Roach
 Rating:
4/5 (4 votes)
                Tunning :Dropped D 1 whole step down
(low to high) C G C F
Notes : This may not be 100% correct but i could`nt wait any longer for someone
to tab it so i done it myself i`ve had to do this three times now you people are lazy
and as soon a tab does come out for it you just start moaning about how wrong it is 

Intro
-------------------------------------
-------------------------------------
-------------------------------------
22222222222222/55-77777777777777/55--

Pre Verse/Chours
------------------------
------------------------
------------------------
1010-1010-1010000000----

Verse
-----------------------------------------------3/1010-101010-----
33--3-3-5-5-66-3-3-5-5-66-3-3-5-5-66-----------------------------

Pre Chours
------------------
------------------
------------------
0000-7------------

Bridge
-------------------
-------------------
-------------------
0-00-000-h7--------

Chours Then

Outro
----------------------------------
-----------------------------------
-----------------------------------
1010-1010-1010-77-77-77------------
hmm i think guitarist41x is a bit off an a**hole do we agree kids
he cant even tab until someone does then he just goes and changes 
one or two riffs to make him self look good at least he listen`s 
to good music
            
Submit corrections

↑ Back to top | Tablatures and chords for acoustic guitar and electric guitar, ukulele, drums are parodies/interpretations of the original songs. You may use it for private study, scholarship, research or language learning purposes only