» » »

Papa Roach - Gouge Away Bass

Artists:  A B C D E F G H I J K L M N O P Q R S T U V W X Y Z # 

Gouge Away Bass

(ver. 2) Click to play this song!
Papa Roach
 Rating:
4/5 (4 votes)
                Riff:

G|------------------------------------------------|
D|---------------------------------2-2-2-2-2-2-2-2|
A|-----------------2-2-2-2-2-2-2-2----------------|
E|-4-4-4-4-4-4-4-4--------------------------------|

G|-------------------------------|
D|-------------------------------|
A|-------------------------------|
E|-4-4-4-4-4-4-4-0-0-0-0-0-0-0-0-|


Repeat throughout whole song.
            
Submit corrections

↑ Back to top | Tablatures and chords for acoustic guitar and electric guitar, ukulele, drums are parodies/interpretations of the original songs. You may use it for private study, scholarship, research or language learning purposes only