» » »

Papa Roach - Give Me Back My Life Tabs

Artists:  A B C D E F G H I J K L M N O P Q R S T U V W X Y Z # 

Give Me Back My Life Tabs

(ver. 2) Click to play this song!
Papa Roach
 Rating:
4/5 (4 votes)


 Give Me Back My Life lessons Tabs too difficult? Try these video lessons and learn fast
 
                -----------------------------------------------------------------------------------------------
-----------------------------------------------------------------------------------------------

Tuning: Drop C# (C# G# C# F# A# D#)



INTRO (repeat x2)

D#|-------------------------------------------------------------------------------------------|
A#|-------------------------------------------------------------------------------------------|
F#|-------------------------------------------------------------------------------------------|
C#|-12-12---14-15-12------12-12---14-15-12------8-8---14-15-12------8-8---14-15-12------------|
G#|-12-12---14-15-12------12-12---14-15-12------8-8---14-15-12------8-8---14-15-12------------|
C#|-12-12---14-15-12------12-12---14-15-12------8-8---14-15-12------8-8---14-15-12------------|


D#|-------------------------------------------------------------------------------------------|
A#|-------------------------------------------------------------------------------------------|
F#|-------------------------------------------------------------------------------------------|
C#|--5-5---14-15-12------5-5---14-15-12------12-12---14-15-12------11-11---14-15-11-----------|
G#|--5-5---14-15-12------5-5---14-15-12------12-12---14-15-12------11-11---14-15-11-----------|
C#|--5-5---14-15-12------5-5---14-15-12------12-12---14-15-12------11-11---14-15-11-----------|


VERSE

I am still to figure out how exactly Jerry plays the verse. For now I will only put the 
basic chords here


D#|-------------------------------------------------------------------------------------------|
A#|-------------------------------------------------------------------------------------------|
F#|-------------------------------------------------------------------------------------------|
C#|-0-0---x-x------0----------3---8------------------------x-x-8-------------7----5-----------|
G#|-0-0---x-x------0----------3---8------------------------x-x-8-------------7----5-----------|
C#|-0-0---x-x------0----------3---8------------------------x-x-8-------------7----5-----------|

   I know that I'm f**ked up and infected...         I've been hiding in the fear rejected


D#|-------------------------------------------------------------------------------------------|
A#|-------------------------------------------------------------------------------------------|
F#|-------------------------------------------------------------------------------------------|
C#|------5--------------------------8---------------------------8-----------------------------|
G#|------5--------------------------8---------------------------8-----------------------------|
C#|------5--------------------------8---------------------------8-----------------------------|

   Thank God that you finally found me...         Cause you've got to get me out of here


D#|-------------------------------------------------------------------------------------------|
A#|-------------------------------------------------------------------------------------------|
F#|-------------------------------------------------------------------------------------------|
C#|-0-0---x-x------0----------3---8------------------------x-x-8-------------7--------5-------|
G#|-0-0---x-x------0----------3---8------------------------x-x-8-------------7--------5-------|
C#|-0-0---x-x------0----------3---8------------------------x-x-8-------------7--------5-------|

       I've been sick and disconnected...            I've been loving like I've been neglected


D#|-------------------------------------------------------------------------------------------|
A#|-------------------------------------------------------------------------------------------|
F#|-------------------------------------------------------------------------------------------|
C#|------5--------------------------3-3-3-3-3-3-3-3--------------2-2-2-2-2-2-2-2--------------|
G#|------5--------------------------3-3-3-3-3-3-3-3--------------2-2-2-2-2-2-2-2--------------|
C#|------5--------------------------3-3-3-3-3-3-3-3--------------2-2-2-2-2-2-2-2--------------|

   All the walls coming down around me...             And you've got to get me out of here


D#|-----------------------------|
A#|-----------------------------|
F#|-----------------------------|
C#|-5----------------7----------|
G#|-5----------------7----------|
C#|-5----------------7----------|

        I can't take anymore


CHORUS = INTRO


VERSE


CHORUS


BRIDGE


D#|-------------------------------------------------------------------------------------------|
A#|-------------------------------------------------------------------------------------------|
F#|-------------------------------------------------------------------------------------------|
C#|-8----------------5-----------------------0-----------------------------10-----------------|
G#|-8----------------5-----------------------0-----------------------------10-----------------|
C#|-8----------------5-----------------------0-----------------------------10-----------------|

        You took my pride    You took control             There's nothing sacred anymore


D#|-------------------------------------------------------------------------------------------|
A#|-------------------------------------------------------------------------------------------|
F#|-------------------------------------------------------------------------------------------|
C#|-8-----------------5-------------------0-0-------0-0-------0-0---3---0-0---7---------------|
G#|-8-----------------5-------------------0-0---3---0-0---5---0-0-------0-0-------------------|
C#|-8-----------------5-------------------0-0-------0-0-------0-0-------0-0-------------------|

     Give back what's mine   Give back my soul


CHORUS x4
            
Submit corrections



        Give Me Back My Life lessons Hard to play? Try these video lessons and learn fast Give Me Back My Life lessons
        
↑ Back to top | Tablatures and chords for acoustic guitar and electric guitar, ukulele, drums are parodies/interpretations of the original songs. You may use it for private study, scholarship, research or language learning purposes only