Home » P » Papa Roach »

Papa Roach - American Dreams Tabs

Artists:  A B C D E F G H I J K L M N O P Q R S T U V W X Y Z # 

American Dreams Tabs

(ver. 2) Click to play this song!
Papa Roach
Tuning: Drop D

[Intro]
e|------------------------------------------------------------------------------------------|
B|------------------------------------------------------------------------------------------|
G|------------------------------------------------------------------------------------------|
D|-12-12-12-12-12------------------------------12-12-12-12-12-------------------------------|
A|---------------12-12-12-14-14-14-14-14-9-9-9---------------12-12-12-14-14-14-14-14-16-16~~|
D|------------------------------------------------------------------------------------------|

[Intro pt 2]
repeat 2x
e|---------------------------------------------------------------------------------|
B|---------------------------------------------------------------------------------|
G|---------------------------------------------------------------------------------|
D|-9---------4---------5---------0---------9---------4---------5---------7---------|
A|-9-(strum)-4-(strum)-5-(strum)-0-(strum)-9-(strum)-4-(strum)-5-(strum)-7-(strum)-|
D|-9---------4---------5---------0---------9---------4---------5---------7---------|

[Verse]
e|---------------------------------------------|
B|---------------------------------------------|
G|---------------------------------------------|
D|-12-12-12-12-12------------------------------| repeat this part 3x
A|---------------12-12-12-14-14-14-14-14-9-9-9-|
D|---------------------------------------------|

then
e|--------------------------------------------------|
B|--------------------------------------------------|
G|--------------------------------------------------|
D|-12-12-12-12-12-----------------------------------|
A|---------------12-12-12-14-14-14-14-14-16-16-16~~-|
D|--------------------------------------------------|

Prechorus is drums and bass

[Chorus]
e|---------------------------------------------------------------------------------|
B|---------------------------------------------------------------------------------|
G|---------------------------------------------------------------------------------|
D|-9---------4---------5---------0---------9---------4---------5---------7---------| repeat this 2x
A|-9-(strum)-4-(strum)-5-(strum)-0-(strum)-9-(strum)-4-(strum)-5-(strum)-7-(strum)-|
D|-9---------4---------5---------0---------9---------4---------5---------7---------|

Repeat [Verse]
e|---------------------------------------------|
B|---------------------------------------------|
G|---------------------------------------------|
D|-12-12-12-12-12------------------------------| repeat this part 3x
A|---------------12-12-12-14-14-14-14-14-9-9-9-|
D|---------------------------------------------|

then
e|--------------------------------------------------|
B|--------------------------------------------------|
G|--------------------------------------------------|
D|-12-12-12-12-12-----------------------------------|
A|---------------12-12-12-14-14-14-14-14-16-16-16~~-|
D|--------------------------------------------------|

Prechorus drums and bass

[Chorus]
e|---------------------------------------------------------------------------------|
B|---------------------------------------------------------------------------------|
G|---------------------------------------------------------------------------------|
D|-9---------4---------5---------0---------9---------4---------5---------7---------| repeat this 2x
A|-9-(strum)-4-(strum)-5-(strum)-0-(strum)-9-(strum)-4-(strum)-5-(strum)-7-(strum)-|
D|-9---------4---------5---------0---------9---------4---------5---------7---------|

[Bridge]
e|----------------------------5-------|
B|-7---7---7---5---7---7---7----7-----|
G|---7---7---7---7---7---7---------7--|
D|------------------------------------| repeat 6x
A|------------------------------------|
D|------------------------------------|

lead guitar part over bridge
e|--------------------------|
B|-3/5/10\5/7---3/5/10\7~~--| these are slides, but you can do hammers if you want
G|--------------------------| just make it sound smooth and legato
D|--------------------------|
A|--------------------------|
D|--------------------------|

[Chorus] until end
|---------------------------------------------------------------------------------|
B|---------------------------------------------------------------------------------|
G|---------------------------------------------------------------------------------|
D|-9---------4---------5---------0---------9---------4---------5---------7---------| repeat this 4x
A|-9-(strum)-4-(strum)-5-(strum)-0-(strum)-9-(strum)-4-(strum)-5-(strum)-7-(strum)-|
D|-9---------4---------5---------0---------9---------4---------5---------7---------|            
Submit corrections

↑ Back to top | Tablatures and chords for acoustic guitar and electric guitar, ukulele, drums are parodies/interpretations of the original songs. You may use it for private study, scholarship, research or language learning purposes only