» » »

Panic At The Disco - The Ballad Of Mona Lisa Bass

Artists:  A B C D E F G H I J K L M N O P Q R S T U V W X Y Z # 

The Ballad Of Mona Lisa Bass

(ver. 3) Click to play this song!
Panic At The Disco
 Rating:
4.3/5 (23 votes)

 The Ballad Of Mona Lisa lessons Tabs too difficult? Try these video lessons and learn fast
 
                [Verse]
G|---------------------------------------------------------------|
D|---------------------------------------------------------------|
A|-7-/-12-12-12-12-12-12-12-12-12-12-12-12-12-12-----------------| From 0:15 to 0:46
E|---------------------------------------------------------------|


[Pre-Chorus]
  Say what you mean... Tell me  I'm right...
G|---------------------------------------------------------------|
D|---------------------------------------------------------------|
A|-------------------3-3-3-3-3-3-3-3--7-7-7-7--------------------|
E|-1-1-1-1-1-1-1-1-----------------------------------------------|

  And let the sun rain down on me...
G|---------------------------------------------------------------|
D|------------7-7-7-7-5-5-5-5-5----------------------------------|
A|-7-7-7-7-------------------------------------------------------|
E|---------------------------------------------------------------|

  Give  me  a  sign  I  wanna   believe.
G|---------------------------------------------------------------|
D|3-3-3-3-3-3-3-3---------------------2--------------------------|
A|------------------3-3-3-3-3-3-3-3------------------------------|
E|---------------------------------------0-0-0-0-0-0-0-0---------|


[Chorus]
  Whoa,  oh  oh  oh  oh.  Mona  Lisa...
G|---------------------------------------------------------------|
D|---------------------------------------------------------------|
A|---------------------------------------------------------------|
E|1-1-1-1-1-1-1-1-1-1-1-1-1-1-1-1--------------------------------|

  Guaranteed  to  run  this  town
G|---------------------------------------------------------------|
D|---------------------------------------------------------------|
A|---------------------------------------------------------------|
E|5-5-5-5-5-5-5-5--3-3-3-3-3-3-3-3-------------------------------|

  Whoa,  oh  oh  oh  oh.  Mona  Lisa...
G|---------------------------------------------------------------|
D|---------------------------------------------------------------|
A|---------------------------------------------------------------|
E|1-1-1-1-1-1-1-1-1-1-1-1-1-1-1-1--------------------------------|

  I'd  pay  to  see you  frown
G|---------------------------------------------------------------|
D|------------------2--------------------------------------------|
A|3-3-3-3-3-3-3-3------------------------------------------------|
E|----------------------0-0-0-0-0-0-0-0--------------------------|


[Verse]
G|---------------------------------------------------------------|
D|---------------------------------------------------------------|
A|-7-/-12-12-12-12-12-12-12-12-12-12-12-12-12-12-----------------| From 1:17 to 1:35
E|---------------------------------------------------------------|

                     Rest until 1:40

[Pre-Chorus]
  Say what you mean... Tell me  I'm right...
G|---------------------------------------------------------------|
D|---------------------------------------------------------------|
A|-------------------3-3-3-3-3-3-3-3--7-7-7-7--------------------|
E|-1-1-1-1-1-1-1-1-----------------------------------------------|

  And let the sun rain down on me...
G|---------------------------------------------------------------|
D|------------7-7-7-7-5-5-5-5-5----------------------------------|
A|-7-7-7-7-------------------------------------------------------|
E|---------------------------------------------------------------|

  Give  me  a  sign  I  wanna   believe.
G|---------------------------------------------------------------|
D|3-3-3-3-3-3-3-3---------------------2--------------------------|
A|------------------3-3-3-3-3-3-3-3------------------------------|
E|---------------------------------------0-0-0-0-0-0-0-0---------|


[Chorus]
  Whoa,  oh  oh  oh  oh.  Mona  Lisa...
G|---------------------------------------------------------------|
D|---------------------------------------------------------------|
A|---------------------------------------------------------------|
E|1-1-1-1-1-1-1-1-1-1-1-1-1-1-1-1--------------------------------|

  Guaranteed  to  run  this  town
G|---------------------------------------------------------------|
D|---------------------------------------------------------------|
A|---------------------------------------------------------------|
E|5-5-5-5-5-5-5-5--3-3-3-3-3-3-3-3-------------------------------|

  Whoa,  oh  oh  oh  oh.  Mona  Lisa...
G|---------------------------------------------------------------|
D|---------------------------------------------------------------|
A|---------------------------------------------------------------|
E|1-1-1-1-1-1-1-1-1-1-1-1-1-1-1-1--------------------------------|

  I'd  pay  to  see you  frown
G|---------------------------------------------------------------|
D|------------------2--------------------------------------------|
A|3-3-3-3-3-3-3-3------------------------------------------------|
E|----------------------0-0-0-0-0-0-0-0--------------------------|


[Interlude]
  Mona Lisa   Wear me out...   ...Pleased to please ya.
G|---------------------------------------------------------------|
D|------------- 5------------------------------5-----------------|
A|12--14--15----------------------12--14--15---------------------|
E|----------------------12----------------------------  12-------|

  Mona Lisa  Wear me out....
G|----------------------------------------------------------------|
D|------------5---------------------------------------------------|
A|12-14-15--------------------------------------------------------|
E|----------------------12-13x------------------------------------|Rest 2:42 to 2:57


[Chorus]
  Whoa,  oh  oh  oh  oh.  Mona  Lisa...
G|---------------------------------------------------------------|
D|---------------------------------------------------------------|
A|---------------------------------------------------------------|
E|1-1-1-1-1-1-1-1-1-1-1-1-1-1-1-1--------------------------------|

  Guaranteed  to  run  this  town
G|---------------------------------------------------------------|
D|---------------------------------------------------------------|
A|---------------------------------------------------------------|
E|5-5-5-5-5-5-5-5--3-3-3-3-3-3-3-3-------------------------------|

  Whoa,  oh  oh  oh  oh.  Mona  Lisa...
G|---------------------------------------------------------------|
D|---------------------------------------------------------------|
A|---------------------------------------------------------------|
E|1-1-1-1-1-1-1-1-1-1-1-1-1-1-1-1--------------------------------|

  I'd  pay  to  see you  frown
G|---------------------------------------------------------------|
D|------------------2--------------------------------------------|
A|3-3-3-3-3-3-3-3------------------------------------------------|
E|----------------------0-0-0-0-0-0-0-0--------------------------|

            
Submit corrections


        The Ballad Of Mona Lisa lessons Hard to play? Try these video lessons and learn fast The Ballad Of Mona Lisa lessons
        
↑ Back to top | Tablatures and chords for acoustic guitar and electric guitar, ukulele, drums are parodies/interpretations of the original songs. You may use it for private study, scholarship, research or language learning purposes only