» » »

Panic At The Disco - Lets Kill Tonight Bass

Artists:  A B C D E F G H I J K L M N O P Q R S T U V W X Y Z # 

Lets Kill Tonight Bass

(ver. 1) Click to play this song!
Panic At The Disco
 Rating:
4/5 (4 votes)


 Lets Kill Tonight lessons Tabs too difficult? Try these video lessons and learn fast
 
                (no bass until 0:25)

  Verse 0:25 
G|-2-----------------------------------------------2-----------------------------|
D|----2-2-2-------------------2-2-2-2----------------2-2-2-------------------2-2-|
A|--0------3-3-2-2-2-2-3-2-0-0-------3-3-2-2-2-3-2--0-----3-3-2-2-2-2-3-2-0-0----|
E|-------------------------------------------------------------------------------|

(no bass at 0:43-45)

  Chorus 0:46 (x2)
G|------------------------------|
D|---2*-0*--0*-1*-2*------------|
A|-0*-----3*--------(2)-(3)-(2)-|
E|------------------------------|
?let?s kill tonight...?

 Chorus Part 2 1:06
G|-----------------------8-9-|
D|---2*-0*--0*-1*-2*--6-9----|
A|-0*-----3*--------7--------|
E|---------------------------|

   Verse 2 1:17 
G|---------------------------------------------------------------------------------|
D|-----2-2-2-------------------2-2-2-2-----------------2-2-2-------------------2-2-|
A|-0-0------3-3-2-2-2-2-3-2-0-0-------3-3-2-2-2-3-2-0-0-----3-3-2-2-2-2-3-2-0-0----|
E|---------------------------------------------------------------------------------|

(no bass 1:34-1:37)

Chorus 1:38 (x3)
G|------------------------------|
D|---2*-0*--0*-1*-2*------------|
A|-0*-----3*--------(2)-(3)-(2)-|
E|------------------------------|

Chorus Part 2 2:08
G|-----------------------8-9-9-10-4-2-|
D|---2*-0*--0*-1*-2*--6-9-------------|
A|-0*-----3*--------7-----------------|
E|------------------------------------|

(no bass at 2:19-end)

-OR-

Optional Ending 2:39 (x6)
G|-----2-----1----4-------5-4-|
D|------2-----2----2----------|
A|-0-0---0-----2-2--2-3-3--2--|
E|--------0-0-----------------|
            
Submit corrections



        Lets Kill Tonight lessons Hard to play? Try these video lessons and learn fast Lets Kill Tonight lessons
        
↑ Back to top | Tablatures and chords for acoustic guitar and electric guitar, ukulele, drums are parodies/interpretations of the original songs. You may use it for private study, scholarship, research or language learning purposes only