» » »

Panic At The Disco - Lets Kill Tonight Tabs

Artists:  A B C D E F G H I J K L M N O P Q R S T U V W X Y Z # 

Lets Kill Tonight Tabs

(ver. 1) Click to play this song!
Panic At The Disco
 Rating:
4.3/5 (27 votes)


 Lets Kill Tonight lessons Tabs too difficult? Try these video lessons and learn fast
 
                [Intro/Verse]  Repeat 7x

GTR. I
e|--5-5----8---8--8-----8--8-----5--5-5----------------------------------------|
B|--5-5----10--10-10----9--9-----6--6-6----------------------------------------|
G|--5-5----9---9--9-----9--9-----7--7-7----------------------------------------|
D|-----------------------------------------------------------------------------|
A|-----------------------------------------------------------------------------|
E|-----------------------------------------------------------------------------|

GTR. II
e|-----------------------------------------------------------------------------|
B|-----------------------------------------------------------------------------|
G|-----------------------------------------------------------------------------|
D|--7----7----9----9----5----5----4----4---------------------------------------|
A|--7----7----9----9----5----5----4----4---------------------------------------|
E|--5----5----7----7----3----3----2----2---------------------------------------|



|------------------------------------------------------------------------------------------|



GTR. I                This is where you stomp your feet and clap your hands
e|--5-5----8---8--8---------------------------------------|*clap* clap* *clap* *Stomp* *clap* *rest* *stomp
B|--5-5----10--10-10--------------------------------------|*clap* clap* *clap* *Stomp* *clap*
G|--5-5----9---9--9---------------------------------------|
D|--------------------------------------------------------|
A|--------------------------------------------------------|
E|--------------------------------------------------------|

GTR. II
e|--------------------------------------------------------|
B|--------------------------------------------------------|
G|--------------------------------------------------------|
D|--7----7----9----9--------------------------------------|
A|--7----7----9----9--------------------------------------|
E|--5----5----7----7--------------------------------------|


|--------------------------------------------------------------------------------------------|

[Chorus] Repeat 3x

GTR I
e|--------------------------------------------------------------------------------|
B|--------------------------------------------------------------------------------|
G|--------------------------------------------------------------------------------|
D|--7----7----9----9----5----5----4----4----5----5----7----7----9----9----9----9--|
A|--7----7----9----9----5----5----4----4----5----5----7----7----9----9----9----9--|
E|--5----5----7----7----3----3----2----2----3----3----5----5----7----7----7----7--|



|------------------------------------------------------------------------------------------------|


[Intro/Verse]  Repeat 4x

GTR. I
e|--5-5----8---8--8-----8--8-----5--5-5----------------------------------------|
B|--5-5----10--10-10----9--9-----6--6-6----------------------------------------|
G|--5-5----9---9--9-----9--9-----7--7-7----------------------------------------|
D|-----------------------------------------------------------------------------|
A|-----------------------------------------------------------------------------|
E|-----------------------------------------------------------------------------|

GTR. II
e|-----------------------------------------------------------------------------|
B|-----------------------------------------------------------------------------|
G|-----------------------------------------------------------------------------|
D|--7----7----9----9----5----5----4----4---------------------------------------|
A|--7----7----9----9----5----5----4----4---------------------------------------|
E|--5----5----7----7----3----3----2----2---------------------------------------|


|-------------------------------------------------------------------------------------------------|

[Chorus] Repeat 3x

GTR I
e|--------------------------------------------------------------------------------|
B|--------------------------------------------------------------------------------|
G|--------------------------------------------------------------------------------|
D|--7----7----9----9----5----5----4----4----5----5----7----7----9----9----9----9--|
A|--7----7----9----9----5----5----4----4----5----5----7----7----9----9----9----9--|
E|--5----5----7----7----3----3----2----2----3----3----5----5----7----7----7----7--|


|---------------------------------------------------------------------------------------------------|

[Chorus] Repeat 3x

GTR I
e|--------------------------------------------------------------------------------|
B|--------------------------------------------------------------------------------|
G|--------------------------------------------------------------------------------|
D|--7----7----9----9----5----5----4----4----5----5----7----7----9----9----9----9--|
A|--7----7----9----9----5----5----4----4----5----5----7----7----9----9----9----9--|
E|--5----5----7----7----3----3----2----2----3----3----5----5----7----7----7----7--|



            
Submit corrections



        Lets Kill Tonight lessons Hard to play? Try these video lessons and learn fast Lets Kill Tonight lessons
        
↑ Back to top | Tablatures and chords for acoustic guitar and electric guitar, ukulele, drums are parodies/interpretations of the original songs. You may use it for private study, scholarship, research or language learning purposes only