» » »

Palma Violets - Matador Tabs

Artists:  A B C D E F G H I J K L M N O P Q R S T U V W X Y Z # 

Matador Tabs

(ver. 1) Click to play this song!
Palma Violets
 Rating:
3/5 (24 votes)

 Matador  lessons Tabs too difficult? Try these video lessons and learn fast
 
                Dm                       C
Matador, I've seen your face before
         Dm 
You were on the strand
       C
With another man

                Dm
It was burning, it was burning
                C
It was burning, it was burning

Dm                  C
Matador, don't you hide away
         Dm                    C
You were in my arms just the other day

                Dm
All I felt was pain
                C
All I felt was pain

       C
Do you see the sun, sun it shines
Dm
Like a bird you were mine
C            
See the sun, sun

G    G    G    G

e|---------5---------5--------5----|
B|-----6---------6--------6--------|
G|-7-----------7--------7----------| x2
D|---------------------------------|
A|---------------------------------|
E|---------------------------------|

e|-5---3--5---6---5-3--------------|
B|-6---5--6---8---6-5--------------|
G|---------------------------------| x2
D|---------------------------------|
A|---------------------------------|
E|---------------------------------|

e|---------5---------5--------5----|
B|-----6---------6--------6--------|
G|-7-----------7--------7----------| x2
D|---------------------------------|
A|---------------------------------|
E|---------------------------------|

Dm                 C
Matador, don't you hide away
         Dm                    C
You were in my arms just the other day

                Dm
All I felt was pain
                C
All I felt was pain
 Dm              C
Strand, by the strand

        C     
Do you see the sun, sun it shines
Dm
Like a bird you were mine
C               
See the sun, sun

G    G    G    G

e|---------5---------5--------5----|
B|-----6---------6--------6--------|
G|-7-----------7--------7----------| x2
D|---------------------------------|
A|---------------------------------|
E|---------------------------------|

e|-5---3--5---6---5-3--------------|
B|-6---5--6---8---6-5--------------|
G|---------------------------------| x2
D|---------------------------------|
A|---------------------------------|
E|---------------------------------|

e|---------5---------5--------5----|
B|-----6---------6--------6--------|
G|-7-----------7--------7----------| x2
D|---------------------------------|
A|---------------------------------|
E|---------------------------------|
                        
e|---------6--5---------6--5-------|
B|-----6-------------6-------------|
G|-7--------------7----------------| x2
D|---------------------------------|
A|---------------------------------|
E|---------------------------------|

e|---------5---------5--------5----|
B|-----6---------6--------6--------|
G|-7-----------7--------7----------| x2
D|---------------------------------|
A|---------------------------------|
E|---------------------------------|

e|---------6--5---------6--5-------|
B|-----6-------------6-------------|
G|-7--------------7----------------| x2
D|---------------------------------|
A|---------------------------------|
E|---------------------------------|

e|---------5---------5--------5----|
B|-----6---------6--------6--------|
G|-7-----------7--------7----------| x2
D|---------------------------------|
A|---------------------------------|
E|---------------------------------|

e|-5---3--5---6---5-3--------------|
B|-6---5--6---8---6-5--------------|
G|---------------------------------| x1
D|---------------------------------|
A|---------------------------------|
E|---------------------------------|



            
Submit corrections


        Matador  lessons Hard to play? Try these video lessons and learn fast Matador  lessons
        
↑ Back to top | Tablatures and chords for acoustic guitar and electric guitar, ukulele, drums are parodies/interpretations of the original songs. You may use it for private study, scholarship, research or language learning purposes only