Home » P » Palace »

Palace - Bones Live Tabs

Artists:  A B C D E F G H I J K L M N O P Q R S T U V W X Y Z # 

Bones Live Tabs

(ver. 1) Click to play this song!
Palace
[Intro]
 
E |-----------------------------------------------------------------------------------------------|
B |-----------------------------------------------------------------------------------------------|
G#|--0-----0-----0-----0-----0-----0-----0-----0-----0-----0-----0----0-----0-----0-----0-----0---|
E |-----------------------------------------------------------------------------------------------|
B |----7-----7-----7-----7-----7-----7-----7-----7-----7-----7-----7----7-----7-----7-----7-----7-|
E |5-----5-----5-----5-----5-----5-----5-----5-----0-----0-----0-----0----8-----8-----9-----9-----|
 
 
 
[Verse 1]
 
 
E |-----------------------------------------------------------------------------------------------|
B |-----------------------------------------------------------------------------------------------|
G#|--0-----0-----0-----0-----0-----0-----0-----0-----0-----0-----0----0-----0-----0-----0-----0---|
E |-----------------------------------------------------------------------------------------------|  x3
B |----7-----7-----7-----7-----7-----7-----7-----7-----7-----7-----7----7-----7-----7-----7-----7-|
E |5-----5-----5-----5-----5-----5-----5-----5-----0-----0-----0-----0----8-----8-----9-----9-----|
 
E |---------------------------------------------------------------------------|
B |---------------------------------------------------------------------------|
G#|--0------0-----0-------0------0------0-------------------------------------|
E |---------------------------------------------------------------------------|
B |----7------7-----7-------7------7------7-----------------------------------|
E |6------6------6------6------5------5------5--------------------------------|
 
 
[Chorus]
 
E |---------------------------------------------------------------------------|
B |---------------------------------------------------------------------------|
G#|--0------0------0-------0------0------0------0------0----------------------|
E |---------------------------------------------------------------------------|   x2
B |----7------7------7-------7------7------7------7------7--------------------|
E |0------0------8-------8------5------5------5------5------------------------|
 
E |---------------------------------------------------------------------------|
B |---------------------------------------------------------------------------|
G#|--0------0------0-------0------0------0------0------0----------------------|
E |---------------------------------------------------------------------------|
B |----7------7------7-------7------7------7------7------7--------------------|
E |0------0------8-------8------6------6------5------5------------------------|
 
E |---------------------------------------------------------------------------|
B |---------------------------------------------------------------------------|
G#|--0------0------0-------0----0---------------------------------------------|
E |---------------------------------------------------------------------------|
B |----7------7------7-------7--7---------------------------------------------|
E |0------0------8-------8------5---------------------------------------------|
 
[Interlude]
 
E |-----------------------------------------------------------------------------------------------|
B |-----------------------------------------------------------------------------------------------|
G#|--0-----0-----0-----0-----0-----0-----0-----0-----0-----0-----0----0-----0-----0-----0-----0---|
E |-----------------------------------------------------------------------------------------------|
B |----7-----7-----7-----7-----7-----7-----7-----7-----7-----7-----7----7-----7-----7-----7-----7-|
E |5-----5-----5-----5-----5-----5-----5-----5-----0-----0-----0-----0----8-----8-----9-----9-----|
 
 
[Verse 2]
 
E |-----------------------------------------------------------------------------------------------|
B |-----------------------------------------------------------------------------------------------|
G#|--0-----0-----0-----0-----0-----0-----0-----0-----0-----0-----0----0-----0-----0-----0-----0---|
E |-----------------------------------------------------------------------------------------------|  x3
B |----7-----7-----7-----7-----7-----7-----7-----7-----7-----7-----7----7-----7-----7-----7-----7-|
E |5-----5-----5-----5-----5-----5-----5-----5-----0-----0-----0-----0----8-----8-----9-----9-----|
 
E |---------------------------------------------------------------------------|
B |---------------------------------------------------------------------------|
G#|--0------0-----0-------0------0------0-------------------------------------|
E |---------------------------------------------------------------------------|
B |----7------7-----7-------7------7------7-----------------------------------|
E |6------6------6------6------5------5------5--------------------------------|
 
 
[Chorus]
 
E |---------------------------------------------------------------------------|
B |---------------------------------------------------------------------------|
G#|--0------0------0-------0------0------0------0------0----------------------|
E |---------------------------------------------------------------------------|   x2
B |----7------7------7-------7------7------7------7------7--------------------|
E |0------0------8-------8------5------5------5------5------------------------|
 
E |---------------------------------------------------------------------------|
B |---------------------------------------------------------------------------|
G#|--0------0------0-------0------0------0------0------0----------------------|
E |---------------------------------------------------------------------------|
B |----7------7------7-------7------7------7------7------7--------------------|
E |0------0------8-------8------6------6------5------5------------------------|
 
E |---------------------------------------------------------------------------|
B |---------------------------------------------------------------------------|
G#|--0------0------0-------0------0------0------0------0----------------------|
E |---------------------------------------------------------------------------|
B |----7------7------7-------7------7------7------7------7--------------------|
E |0------0------8-------8------5------5------5------5------------------------|
 
E |---------------------------------------------------------------------------|
B |---------------------------------------------------------------------------|
G#|--0------0------0-------0------0------0------0------0----------------------|
E |---------------------------------------------------------------------------|   x2
B |----7------7------7-------7------7------7------7------7--------------------|
E |0------0------8-------8------5------5------5------5------------------------|
 
E |---------------------------------------------------------------------------|
B |---------------------------------------------------------------------------|
G#|--0------0------0-------0------0------0------0------0----------------------|
E |---------------------------------------------------------------------------|
B |----7------7------7-------7------7------7------7------7--------------------|
E |0------0------8-------8------6------6------5------5------------------------|
 
E |---------------------------------------------------------------------------|
B |---------------------------------------------------------------------------|
G#|--0------0------0-------0----0---------------------------------------------|
E |---------------------------------------------------------------------------|
B |----7------7------7-------7--7---------------------------------------------|
E |0------0------8-------8------5---------------------------------------------|
 
 
 
 
[Bridge]
 
E |---------------------------------------------------------------------------|
B |---------------------------------------------------------------------------|
G#|--0------0------0------0-----0------0------0------0------------------------|
E |---------------------------------------------------------------------------|   x3
B |----7------7------7------7-----7------7------7------7----------------------|
E |9------9------8------8------7-----7------6------6--------------------------|
 
 
E |---------------------------------------------------------------------------|
B |---------------------------------------------------------------------------|
G#|--0-----0-----0-----0-----0-----0-----0-----0-----0------------------------|
E |---------------------------------------------------------------------------|
B |----7-----7-----7-----7-----7-----7-----7-----7---7------------------------|
E |5-----5-----5-----5-----5-----5-----5-----5-------5------------------------|
 
[Chorus]
 
E |---------------------------------------------------------------------------|
B |---------------------------------------------------------------------------|
G#|--0------0------0-------0------0------0------0------0----------------------|
E |---------------------------------------------------------------------------|   x2
B |----7------7------7-------7------7------7------7------7--------------------|
E |0------0------8-------8------5------5------5------5------------------------|
 
E |---------------------------------------------------------------------------|
B |---------------------------------------------------------------------------|
G#|--0------0------0-------0------0------0------0------0----------------------|
E |---------------------------------------------------------------------------|
B |----7------7------7-------7------7------7------7------7--------------------|
E |0------0------8-------8------6------6------5------5------------------------|
 
E |---------------------------------------------------------------------------|
B |---------------------------------------------------------------------------|
G#|--0------0------0-------0------0------0------0------0----------------------|
E |---------------------------------------------------------------------------|
B |----7------7------7-------7------7------7------7------7--------------------|
E |0------0------8-------8------5------5------5------5------------------------|
 
E |---------------------------------------------------------------------------|
B |---------------------------------------------------------------------------|
G#|--0------0------0-------0------0------0------0------0----------------------|
E |---------------------------------------------------------------------------|   x2
B |----7------7------7-------7------7------7------7------7--------------------|
E |0------0------8-------8------5------5------5------5------------------------|
 
E |---------------------------------------------------------------------------|
B |---------------------------------------------------------------------------|
G#|--0------0------0-------0------0------0------0------0----------------------|
E |---------------------------------------------------------------------------|
B |----7------7------7-------7------7------7------7------7--------------------|
E |0------0------8-------8------6------6------5------5------------------------|
 
E |---------------------------------------------------------------------------|
B |---------------------------------------------------------------------------|
G#|--0------0------0-------0----0---------------------------------------------|
E |---------------------------------------------------------------------------|
B |----7------7------7-------7--7---------------------------------------------|
E |0------0------8-------8------5---------------------------------------------|
            
Submit corrections

↑ Back to top | Tablatures and chords for acoustic guitar and electric guitar, ukulele, drums are parodies/interpretations of the original songs. You may use it for private study, scholarship, research or language learning purposes only