Home » P » Palace »

Palace - Bitter Tabs

Artists:  A B C D E F G H I J K L M N O P Q R S T U V W X Y Z # 

Bitter Tabs

(ver. 1) Click to play this song!
Palace
e|---------------------------------|---------------------------------|
B|---------------------------------|---------------------------------|
G|---------------------------------|---------------------------------|
D|---------------------------4-6-4-|---------------------------6-4---|
A|-----------4-------6-----6-------|-----------4-------6-----6-----6-|
E|-4-4-----4-------4---------------|-4-4-----4-------4---------------|

e|---------------------------------|---------------------------------|
B|---------------------------------|---------------------------------|
G|---------------------------4-----|---------------------------------|
D|-------------------------4---6-4-|---------------------------------|
A|-----------4-------6-------------|-----------4-------6-------------|
E|-4-4-----4-------4---------------|-4-4-----4-------4---------------|            
Submit corrections

↑ Back to top | Tablatures and chords for acoustic guitar and electric guitar, ukulele, drums are parodies/interpretations of the original songs. You may use it for private study, scholarship, research or language learning purposes only