» » »

Pajaro Sunrise - Old Goodbyes Chords

Artists:  A B C D E F G H I J K L M N O P Q R S T U V W X Y Z # 

Old Goodbyes Chords

(ver. 1) Click to play this song!
Pajaro Sunrise
 Rating:
4/5 (4 votes)

 Old Goodbyes  lessons Tabs too difficult? Try these video lessons and learn fast
 
                Tuning:Standard - Capo 6th fret

Intro

e|------------------------------------0---------------1---0------------------|
B|--1---------1------3---------3---------------1-------------1---------------|
G|-----2---0-----0----------0----0----------2-----2-------------2------------|
D|-----------------------0---------------2------------3----------------------|
A|--3----------------2----------------0--------------------------------------|
E|---------------------------------------------------------------------------|

e|--1--------------------------------------------------------------------------|
B|----------1----3------0---1---------1---1--1----------1----------------------|
G|-----0/2h---0-------0-----2---0/2h------2----2--------0----------------------|
D|------------------0-------2-------------3------3------2----------------------|
A|--3------------2----------0---------------------------3----------------------|
E|-----------------------------------------------------------------------------|

Fingerpcking

C
Early Sunday morning,
          B/G         Am
By the sound of the bell
        Fmaj7     C                 C/B           Am      Fmaj7
I can tell the day's going to be some kind of nightmare.

C
I walk you to the station
              B/G            Am
With your suitcase in my hands;
      Fmaj7        C                   C/B
All is well just as long as the lights are on
            Am    Fmaj7
And no one asks you.

                C
It's like you said:
                   G
Sometimes you pretend
       D G#                Am
And sometimes you just forget
                      Em F7 Maj G
As pages are turned over.
            C                  G
But some lines remain in your mind
     D G#              Am
Through the test of time
                                  Em  F7maj G
To carve their way into your old goodbyes

Repet intro.

Same chords as above

And maybe I am guilty for the things you've left undone,
I don't know,
Maybe I am the scratch on your knee not healing.
When your mother gave you away
You just couldn't say a word,
Welcome home,
Now the world looks new to you
But it turns faster,
Way much faster


Like you said:
Sometimes you pretend
And sometimes you just forget
As pages are turned over.
But some lines remain in your mind
Through the test of time
To carve their way into your old goodbyes.

D G#
---------|
---3-----|
---0-----|
---0-----|
---------|
---4-----|
            
Submit corrections


        Old Goodbyes  lessons Hard to play? Try these video lessons and learn fast Old Goodbyes  lessons
        
↑ Back to top | Tablatures and chords for acoustic guitar and electric guitar, ukulele, drums are parodies/interpretations of the original songs. You may use it for private study, scholarship, research or language learning purposes only