» » »

Page Cxvi - My Jesus I Love Thee Bass

Artists:  A B C D E F G H I J K L M N O P Q R S T U V W X Y Z # 

My Jesus I Love Thee Bass

(ver. 1) Click to play this song!
Page Cxvi
 Rating:
4/5 (4 votes)

 My Jesus I Love Thee  lessons Tabs too difficult? Try these video lessons and learn fast
 
                Key: C

Note I: I know the original song is not in the key of C, but 
this is what my church played it in, and I hope anyone who 
plays it in this key finds this helpful. 

Note II: I added more notes than there were in the original 
to make it more interesting.

Tuning: standard

[Intro]
[x2]
G|------------------------------------------------------------|
D|------2-----------------------------------------------------|
A|-3--3---5-3---1--1-5-3-1------------------------------------|
E|---------------------------5--5-8-6-5---1--1-5-3-1----------|

[Verse I]
[x2]
G|------------------------------------------------------------|
D|------------------------------------------------------------|
A|-3~----1~----------3---------------3----3-1----1------------|
E|-------------5~-------1~------3-----------------------------|
[x1]
G|------------------------------------------------------------|
D|------------------------------------------------------------|
A|-3----3-1----1---------------3----3-1----1------------------|
E|---------------5----5-1----1---------------5----5-3----3----|

[x1]
G|------------------------------------------------------------|
D|------------------------------------------------------------|
A|-3~----1~----------3----------------------------------------|
E|-------------5~-------1~------3-----------------------------|

[Interlude]
[x2]
G|------------------------------------------------------------|
D|------2-----------------------------------------------------|
A|-3--3---5-3---1--1-5-3-1------------------------------------|
E|---------------------------5--5-8-6-5---1--1-5-3-1----------|

[Verse II]
[x2]
G|------------------------------------------------------------|
D|------------------------------------------------------------|
A|-3~----1~----------3---------------3----3-1----1------------|
E|-------------5~-------1~------3-----------------------------|

[x1]
G|------------------------------------------------------------|
D|------------------------------------------------------------|
A|-3----3-1----1---------------3----3-1----1------------------|
E|---------------5----5-1----1---------------5----5-3----3----|

[x1]
G|------------------------------------------------------------|
D|------------------------------------------------------------|
A|-3~----1~----------3----------------------------------------|
E|-------------5~-------1~------3-----------------------------|

[Interlude]
[x4]
G|------------------------------------------------------------|
D|------2-----------------------------------------------------|
A|-3--3---5-3---1--1-5-3-1------------------------------------|
E|---------------------------5--5-8-6-5---1--1-5-3-1----------|

[Verse III]
G|------------------------------------------------------------|
D|------------------------------------------------------------|
A|-3----3--3--3--3--3~----------------------------------------|
E|------------------------------------------------------------|

[No Bass until "If ever..."]
[x3]
G|------------------------------------------------------------|
D|------------------------------------------------------------|
A|-3--3--3--3--1--1--1--1-------------------------------------|
E|-------------------------5--5--5--5--1--1--1--1-------------|

[x1]
G|------------------------------------------------------------|
D|------------------------------------------------------------|
A|------------------------------------------------------------|
E|-1--1--1--1--3--3--3--3-------------------------------------|

[Outro]
[x4]
G|------------------------------------------------------------|
D|------2-----------------------------------------------------|
A|-3--3---5-3---1--1-5-3-1------------------------------------|
E|---------------------------5--5-8-6-5---1--1-5-3-1----------|

G|------------------------------------------------------------|
D|------------------------------------------------------------|
A|-3~---------------------------------------------------------|
E|------------------------------------------------------------|
            
Submit corrections


        My Jesus I Love Thee  lessons Hard to play? Try these video lessons and learn fast My Jesus I Love Thee  lessons
        
↑ Back to top | Tablatures and chords for acoustic guitar and electric guitar, ukulele, drums are parodies/interpretations of the original songs. You may use it for private study, scholarship, research or language learning purposes only