» » »

Pagans Mind - Live Your Life Like A Dream Tabs

Artists:  A B C D E F G H I J K L M N O P Q R S T U V W X Y Z # 

Live Your Life Like A Dream Tabs

(ver. 1) Click to play this song!
Pagans Mind
 Rating:
3.4/5 (23 votes)

 Live Your Life Like A Dream  lessons Tabs too difficult? Try these video lessons and learn fast
 
                e|---------------------------------------------------|
B|-5/7-7p5-5-7-5-------------------------------------|
G|---------------7p4-7/9-------------7-6h7p6---------|
D|-----------------------7/9\7---------------7/9-9-7-|
A|-----------------------------5-7/9-----------------|
E|---------------------------------------------------|

e|---------------12h14-17+~\-/19-17-15-14-12h14/15-14-12-------------|
B|-/15pb17-15-15-----------------------------------------15-14\12----|
G|----------------------------------------------------------------14-|
D|-------------------------------------------------------------------|
A|-------------------------------------------------------------------|
E|-------------------------------------------------------------------|

e|-----------14h15p14----------21-22-21\19-17\-12b14-12-10-------------------|
B|--------------------17-15-14-----------------------------12----------------|
G|----11+-----------------------------------------------------9b11-9-7-------|
D|-12-----12------------------------------------------------------------9-9\-|
A|---------------------------------------------------------------------------|
E|---------------------------------------------------------------------------|

e|----------------------|
B|----------------------|
G|--------7-9h11p9-7-7\-|
D|------7---------------|
A|-9-10-----------------|
E|----------------------|            
Submit corrections


        Live Your Life Like A Dream  lessons Hard to play? Try these video lessons and learn fast Live Your Life Like A Dream  lessons
        
↑ Back to top | Tablatures and chords for acoustic guitar and electric guitar, ukulele, drums are parodies/interpretations of the original songs. You may use it for private study, scholarship, research or language learning purposes only