Home » O » Ozma »

Ozma - Reign Of The Golden Gorilla Tabs

Artists:  A B C D E F G H I J K L M N O P Q R S T U V W X Y Z # 

Reign Of The Golden Gorilla Tabs

(ver. 1) Click to play this song!
Ozma
 Rating:
4/5 (5 votes)
                

1/2 step tuning

-1-2-0------------------------------------------------------------------------|
-0-0-1------------------------------------------------------------------------|
-0-2-0-----4------------------------------------------------------------------|
-0-0-2---2-4------------------------------------------------------------------|
-2---3---2-2------------------------------------------------------------------|
-3-------0--------------------------------------------------------------------|
 "I see you every day......."

----------------------------8-7-----8-7-----8-7-------------------------------|
----------------------8-7-8-----8-7-----8-7-----------------------------------|
---4--------------------------------------------------------------------------|
-5-4--------------------------------------------------------------------------|
-5-2--------------------------------------------------------------------------|
-3----------------------------------------------------------------------------|
 part after verse with keyboard riff

-------------------------------------8-7-----8-7-----8-7----------------------|
----------------------8-10---8-8-7-8-----8-7-----8-7--------------------------|
---------------------------9--------------------------------------------------|
-7-2--------------------------------------------------------------------------|
-7-2--------------------------------------------------------------------------|
-5-0--------------------------------------------------------------------------|
 part after  "i dont wanna suffer anymore"

-------------------------------15-14-------15-14-------15-14------------------|
----------------------15-14-15-------15-14-------15-14------------------------|
-7-4--------------------------------------------------------------------------|
-7-4--------------------------------------------------------------------------|
-5-2--------------------------------------------------------------------------|
------------------------------------------------------------------------------|
 the part where it goes higher
            
Submit corrections

↑ Back to top | Tablatures and chords for acoustic guitar and electric guitar, ukulele, drums are parodies/interpretations of the original songs. You may use it for private study, scholarship, research or language learning purposes only