Home » O » Ozma »

Ozma - Los Angeles Tabs

Artists:  A B C D E F G H I J K L M N O P Q R S T U V W X Y Z # 

Los Angeles Tabs

(ver. 1) Click to play this song!
Ozma
 Rating:
4/5 (4 votes)
                

tune down 1/2 step

------------------------------------------------------------------------------|
------------------------------------------------------------------------------|
---------------------------7--------------------------------------------------|
-------------------------2-7--------------------------------------------------|
--9h10-10-10-------------2-5--------------------------------------------------|
-------------10-12-10----0----------------------------------------------------|
   Riff1 guitar1

------------------------------------------------------------------------------|
------------------------------------------------------------------------------|
----5---5---------------------------------------------------------------------|
--2-5-5-5---------------------------------------------------------------------|
--2-3-5-3---------------------------------------------------------------------|
--0---3-----------------------------------------------------------------------|
  Riff1   guitar2

--0---5-3-10-7-10-12--0---5-3-10-7-5h7p5-3------------------------------------|
----3-------------------3-----------------------------------------------------|
------------------------------------------------------------------------------|
------------------------------------------------------------------------------|
------------------------------------------------------------------------------|
------------------------------------------------------------------------------|
  Gotta Find.....         Living Here.......

------------------------------------------------------------------------------|
------------------------------------------------------------------------------|
---5-------------------------4-5---7---5---7----------------------------------|
-5-5-2-7-------------------5-4-5-2-7-5-5-2-7-5-4------------------------------|
-5-3-2-7-------------------5-2-3-2-5-5-3-2-5-5-4------------------------------|
-3---0-5-------------------3-----0---3---0---3-2------------------------------|
  Chorus (Back Back Honey)

------------------------------------------------------------------------------|
------------------------------------------------------------------------------|
---------4-5---7--------------------------------------------------------------|
-2-5-2-5-4-5-2-7--------------------------------------------------------------|
-2-5-2-5-2-3-2-5--------------------------------------------------------------|
-0-3-0-3-----0----------------------------------------------------------------|
  Solo                                                  Rhythm (P.M)

-12p10h12p10------------------------------------------------------------------|
-------------12-10-8-10-12-12p10h12p10-8--------------------------------------|
-----------------------------------------9-7-9-12----------5---5--------------|
---------------------------------------------------------2-5-5-5--------------|
---------------------------------------------------------2-3-5-3--------------|
---------------------------------------------------------0---3----------------|
            
Submit corrections

↑ Back to top | Tablatures and chords for acoustic guitar and electric guitar, ukulele, drums are parodies/interpretations of the original songs. You may use it for private study, scholarship, research or language learning purposes only