Home » O » Ozma »

Ozma - Flight Of The Bootymaster Tabs

Artists:  A B C D E F G H I J K L M N O P Q R S T U V W X Y Z # 

Flight Of The Bootymaster Tabs

(ver. 1) Click to play this song!
Ozma
 Rating:
4/5 (4 votes)
                

-12-10-12-10-9-7----------9-7----------9-7------------------------------------|
-----------------10-9-7-------10-9-7-------10-9-7-9-10------------------------|
------------------------9------------9----------------------------------------|
------------------------------------------------------------------------------|
------------------------------------------------------------------------------|
------------------------------------------------------------------------------|
 Intro (keyboard)

------------------------------------------------------------------------------|
------------------------------------------------------------------------------|
-----------4------------------------------------------------------------------|
-7-2-7-2-4-4-7----------------------------------------------------------------|
-7-2-7-2-4-2-7----------------------------------------------------------------|
-5-0-5-0-2---5----------------------------------------------------------------|
 rhythm intro

------------------------------------------------------------------------------|
------------------------------------------------------------------------------|
---6-7---------------------------------------6---4----------------------------|
-7-6-7-9-------------------------------------6-4-4-2--------------------------|
-7-4-5-9-------------------------------------4-4-2-2--------------------------|
-5-----7---------------------------------------2---0--------------------------|
 verse(wesley wilis)                   part right bfore solo (now is the end)

---------2---------------------0-2-4-5-12-12-12-12-12-12-12-12-12-12-14-------|
-----2-5---0-----2-5-3-2-0-2-3------------------------------------------------|
-2-4---------2-4--------------------------------------------------------------|
------------------------------------------------------------------------------|
------------------------------------------------------------------------------|
------------------------------------------------------------------------------|
  solo

-------------12-----------------9-7----14-12----------------------------------|
-12-10-12-14----14-12-10-7-9-10-----10-------12-------------------------------|
------------------------------------------------12----------------------------|
------------------------------------------------------------------------------|
------------------------------------------------------------------------------|
------------------------------------------------------------------------------|
   solo

------------------------------------------------------------------------------|
------------------------------------------------------------------------------|
---7-------7------------------------------------------------------------------|
-7-7-4-2-7-7-4----------------------------------------------------------------|
-7-5-4-2-7-5-4----------------------------------------------------------------|
-5---2-0-5---2----------------------------------------------------------------|
 rhythm for solo
            
Submit corrections

↑ Back to top | Tablatures and chords for acoustic guitar and electric guitar, ukulele, drums are parodies/interpretations of the original songs. You may use it for private study, scholarship, research or language learning purposes only