Home » O » Ozma »

Ozma - Battlescars Tabs

Artists:  A B C D E F G H I J K L M N O P Q R S T U V W X Y Z # 

Battlescars Tabs

(ver. 1) Click to play this song!
Ozma
 Rating:
4/5 (4 votes)
                "(1)
                    BATTLESCARS(Outro) - Ozma


TUNE DOWN 1/2 STEP!

e|--------------------------------------------------------------------2------|
B|2--------------2~--2---3~-----------------------------------------2----5-5-|
G|--4~-------2~-------------4~--4---------1~---4---6--------------2----------|
D|-----2---2----------------------2--------------------7---------------------|
A|0------0-------------2------------2---2--------0---------------------------|
E|------------------------------0-----0------------------4~---2~-----------0-|

e|---------------------------------------------------------------------------|
B|--------------------3~--3-3p2-2-1-2----2-------------2~--2---3~------------|
G|7--7-6-1~-------1/4----------------------4-------2~-------------4~--4------|
D|-------------------------------------------2---2----------------------2----|
A|--------------------------0------------0-----0-------------2------------2--|
E|------------0~----------------------0~------------------------------0-----0|

e|------------------------------2----------------------2---------------------|
B|----------------------------2----5-5\3-3p2-0-------3-3--3--3p2-2\1-2-------|
G|--1/4--4---6--------------2----------------1-----4-------------2\1-2----2~-|
D|---------------7--------------------------------------------------------0~-|
A|2--------0-------------------------------------------------0-------0--4----|
E|-----------------4~---2~------2----0-------0--0----------------------------|

e|---------------------------------------------------------------------------|
B|--------------------------------------------3------------------------------|
G|2/4--1------------------------6---------------4-3-3/4----------4-----------|
D|-----2--4-3--4--6--6/7---6-4--------------------------------2----3---------|
A|----------4--5--8--8/9-7---5----4-2-0---------------------2-4--------------|
E|--------------------------------------4-2-0-----------2-4----------4-2-1---|

e|---------------------------------------------------------------------------|
B|----2----------------------------------------------------------------------|
G|------2-1-2---1------------------------------------------------------------|
D|----------------4~---------------------------------------------------------|
A|----------------5~--7-5~--4-7~---------------------------------------------|
E|1/2-------------------7~----7~---DOOR SQUEAKING NOISE----------------------| 
"            
Submit corrections

↑ Back to top | Tablatures and chords for acoustic guitar and electric guitar, ukulele, drums are parodies/interpretations of the original songs. You may use it for private study, scholarship, research or language learning purposes only