Home » O » Overkill »

Overkill - Stone Cold Jesus Tabs

Artists:  A B C D E F G H I J K L M N O P Q R S T U V W X Y Z # 

Stone Cold Jesus Tabs

(ver. 1) Click to play this song!
Overkill
 Rating:
4/5 (4 votes)
                OVERKILL - STONE COLD JESUS
(Necroshine, 1999)

Key
= after note = vibrato
^ after note = heavy vibrato 
\ = slide down
/ = slide up
+ = tap
h = hammer
p = pull
n = natural harmonic
s = pinching harmonic (squeal)
* = tremolo pick
t = trill
b = bend
|-3-| = triplet

n number above the tab = play the first part then the first finishing part
			 play the first part a second time and then play the second finishing part
			 etc.

Tune Down 1 Step

Intro 

D ---------------------------------------------------------------------
A ---------------------------------------------------------------------
F ---------------------------------------------------------------------
C -2--2------------------------------2--2------------------------------
G -2--2------------------------------2--2------------------------------
D -0--0------------------------------0--0------------------------------

D --------------------------------------------------------------------------------------
A --------------------------------------------------------------------------------------
F --------------------------------------------------------------------------------------
C -2--2------------------------------2--2--------------7--------------------------------
G -2--2------------------------------2--2--------------5--------------------------------
D -0--0------------------------------0--0--------------5--------------------------------

Riff 1

D ------------------------------------------------
A ------------------------------------------------
F ------------------------------------------------
C -2--2-------------------------------------------
G -2--2-------------------------------------------
D -0--0--0--3----5----3--5b6----5b6----5--3--0----

Riff 1A

D ----------------------------------------
A ----------------------------------------
F ----------------------------------------
C -2--2------------------8----------------
G -2--2------------------8----------------
D -0--0--0--3----5----3--6----------------

Riff 1B

D ------------------------------------------
A ------------------------------------------
F ------------------------------------------
C -2--2-------------------------------------
G -2--2-------------------------------------
D -0--0--0--3----5----3--5b6----------------

Riff 2

D ------------------------------------------------------------------------------------
A ------------------------------------------------------------------------------------
F -----------------------------------------------------------9------8-----------------
C -2--2-----5----2-------2--2-----5----2-------2--2-----5----9------8-----------------
G -2--2-----5----2-------2--2-----5----2-------2--2-----5----7------6-----------------
D -0--0--2--3----0----0--0--0--2--3----0----0--0--0--2--3------------------------3====

D -----------------------------------------------------------------------------------
A -----------------------------------------------------------------------------------
F -----------------------------------------------------------9------8----------------
C -2--2-----5----2-------2--2-----5----2-------2--2-----5----9------8----------------
G -2--2-----5----2-------2--2-----5----2-------2--2-----5----7------6----------------
D -0--0--2--3----0----0--0--0--2--3----0----0--0--0--2--3----------------------------

Riff 3

D ---------------------------------------------------------------------------------------------------------
A ---------------------------------------------------------------------------------------------------------
F -------------------------------------------------5--5--5--5--7--7--7--7--10--10--10--10--15--15--15--15--
C -3--3--3--3--3--3--3--3--3--3--3--3--3--3--3--3--5--5--5--5--7--7--7--7----------------------------------
G -3--3--3--3--3--3--3--3--3--3--3--3--3--3--3--3--3--3--3--3--5--5--5--5--8 --8 --8 --8 --13--13--13--13--
D -1--1--1--1--1--1--1--1--1--1--1--1--1--1--1--1----------------------------------------------------------

Riff 3A

D ---------------------------------------------------------------------------------------------------------------------
A ---------------------------------------------------------------------------------------------------------------------
F -------------------------------------------------5--5--5--5--7--7--7--7--10--10--10--10--9--9--9--9--10--10--10--10--
C -3--3--3--3--3--3--3--3--3--3--3--3--3--3--3--3--5--5--5--5--7--7--7--7--10--10--10--10--9--9--9--9--10--10--10--10--
G -3--3--3--3--3--3--3--3--3--3--3--3--3--3--3--3--3--3--3--3--5--5--5--5--8 --8 --8 --8 --7--7--7--7--8 --8 --8 --8 --
D -1--1--1--1--1--1--1--1--1--1--1--1--1--1--1--1----------------------------------------------------------------------

D -------------------------------------
A -------------------------------------
F -12-12-12-12-15-15-15-15-14-14-14-14-
C -------------------------------------
G -10-10-10-10-13-13-13-13-12-12-12-12-
D -------------------------------------

Riff 4A 

D ------------------------------------------------------
A ------------------------------------------------------
F ------------------------------------------------------
C -8-8-8-8--8-8-8-8-8-------8-8-8-8--8-8-8-8-8----------
G -8-8-8-8--8-8-8-8-8-------8-8-8-8--8-8-8-8-8----------
D -6-6-6-6--6-6-6-6-6-------6-6-6-6--6-6-6-6-6--0-5--3--

Riff 4

D -------------------------------------------------------------
A -------------------------------------------------------------
F -------------------------------------------------------------
C -8-8-8-8--8-8-8-8-8-------------8-8-8-8--8-8-8-8-8-----7--5--
G -8-8-8-8--8-8-8-8-8-------------8-8-8-8--8-8-8-8-8-----7--5--
D -6-6-6-6--6-6-6-6-6-0-0-0-0-0-0-6-6-6-6--6-6-6-6-6-0-0-5--3--

Riff 5

D -------------------------------------------------------
A -------------------------------------------------------
F -------------------------------------------------------
C -----------------------------------2--------2----------
G -----------------------------------2--------2----------
D -0-0-0-0-0--0-0-0-0-0------0-0-0-0-0--0-0-0-0--0-1-1-1-

Fill 1

D ---------------------------------------------------------------------
A ---------------------------------------------------------------------
F ---------------------------------------------------------------------
C -2-------------------------------------------------------------------
G -2-------------------------------------------------------------------
D -0------------------------------------------------22\----------------

Order

Intro x 1
Riff 1 x 4
Riff 2 x 2
Riff 3 x 1
Riff 1 x 3
Riff 1A x 1
Riff 4A x 1
Riff 2 x 2
Riff 3A x 1
Riff 1 x 3
Riff 1A x 1
Riff 4 x 6
Solo over Riff 5 x 4
Riff 4 x 4
Solo over Riff 5 x 4
Riff 4 x 4
Fill 1 x 1
Riff 1 x 3
Riff 1A x 1
Riff 1 x 3
Riff 1B x 1
Riff 1 until fade
            
Submit corrections

↑ Back to top | Tablatures and chords for acoustic guitar and electric guitar, ukulele, drums are parodies/interpretations of the original songs. You may use it for private study, scholarship, research or language learning purposes only