Home » O » Outfield »

Outfield - All The Love In The World Tabs

Artists:  A B C D E F G H I J K L M N O P Q R S T U V W X Y Z # 

All The Love In The World Tabs

(ver. 2) Click to play this song!
Outfield
[Intro]
 
e|-----------------------------------|
B|--------------9---10---9--------9--|
G|-----9---11----------------11------|
D|---9---9----9---9----9---9----9----| 4x
A|-----------------------------------|
E|-----------------------------------|
 
 
[Verse]
 
 (Palm Muted)
e|-----------------------------------|
B|--------------9---10---9--------9--|
G|-----9---11----------------11------|
D|---9---9----9---9----9---9----9----| 4x
A|-----------------------------------|
E|-----------------------------------|
 
e|-----------------------------------|
B|--------------9---10---9--------9--|
G|-----9---11----------------11------|
D|---9---9----9---9----9---9----9----| 4x
A|-----------------------------------|
E|-----------------------------------|
 
 
[Chorus]
 
e|----------|
B|--0---0---|
G|--4---2---|
D|--4---2---| 4x
A|--2---0---|
E|----------|
 
Guitar nº2:
 (Natural Harmonics)
e|-----12-----|
B|--7------7--|
G|------------|
D|------------| 4x
A|------------|
E|------------|
 
 
[Verse]
 
 (Palm Muted)
e|-----------------------------------|
B|--------------9---10---9--------9--|
G|-----9---11----------------11------|
D|---9---9----9---9----9---9----9----| 4x
A|-----------------------------------|
E|-----------------------------------|
 
e|-----------------------------------|
B|--------------9---10---9--------9--|
G|-----9---11----------------11------|
D|---9---9----9---9----9---9----9----| 4x
A|-----------------------------------|
E|-----------------------------------|
 
 
[Chorus]
 
e|----------|
B|--0---0---|
G|--4---2---|
D|--4---2---| 4x
A|--2---0---|
E|----------|
 
Guitar nº2:
 (Natural Harmonics)
e|-----12-----|
B|--7------7--|
G|------------|
D|------------| 4x
A|------------|
E|------------|
 
 
[Bridge]
 
e|-------------------------------|------0-------------0----------|
B|------5-------------5----------|-------------------------------|
G|--------6---6---------6---6----|--------4---4---------4---4----|
D|----6-----6---6---6-----6---6--|----4-----4---4---4-----4---4--|
A|--4-------------4--------------|--2-------------2--------------|
E|-------------------------------|-------------------------------|
 
e|-------------------------------|------0--------------------------|
B|------5-------------5----------|---------------------------------|
G|--------6---6---------6---6----|--------4---4--------------------|
D|----6-----6---6---6-----6---6--|----4-----4---4-4-4-4-4-4-4-4-4--|
A|--4-------------4--------------|--2-------------2-2-2-2-2-2-2-2--|
E|-------------------------------|---------------------------------|
 
 
[Solo]
 
E|-----------|--------------|------------------------------------------|-----------11-12-14-14b16--|
B|-----------|--------------|------------------------------------------|--10-12-14-----------------|
G|--11b13----|--------------|---------------------------------9-11-13--|---------------------------|
D|-----------|--11b13r11----|--11\9-9/14-14-14--14\9--9-11-13----------|---------------------------|
A|-----------|--------------|------------------------------------------|---------------------------|
E|-----------|--------------|------------------------------------------|---------------------------|
 
                                                                                    NH NH
E|--0--0-----------|--0-------------|--------0-----------------|-----------------------12--|
B|--0--0-0--0-0-0--|--0-0----0-0-0--|------0---0----2-4-5-4-2--|------5-------------7------|
G|--9--9-9--9-9-8--|--6-6----6-6-4--|-----------2---2-4-6-4-2--|---------------------------|
D|--9--9----9-9-8--|--6-6-6--6-6-4--|----2--------2------------|----6---6h7--6h7--6--------|
A|--7--7----7-7-6--|--4-4-4--4-4-2--|--0-----------------------|---------------------------|
E|-----------------|----------------|--------------------------|--4------------------------|
 
Guitar nº2:
 
e|-----------------------------------|
B|--------------9---10---9--------9--|
G|-----9---11----------------11------|
D|---9---9----9---9----9---9----9----| 8x
A|-----------------------------------|
E|-----------------------------------|
 
 
[Verse]
 
 (Palm Muted)
e|-----------------------------------|
B|--------------9---10---9--------9--|
G|-----9---11----------------11------|
D|---9---9----9---9----9---9----9----| 4x
A|-----------------------------------|
E|-----------------------------------|
 
e|-----------------------------------|
B|--------------9---10---9--------9--|
G|-----9---11----------------11------|
D|---9---9----9---9----9---9----9----| 4x
A|-----------------------------------|
E|-----------------------------------|
 
 
[Chorus]
 
e|----------|
B|--0---0---|
G|--4---2---|
D|--4---2---| 4x
A|--2---0---|
E|----------|
 
Guitar nº2:
 (Natural Harmonics)
e|-----12-----|
B|--7------7--|
G|------------|
D|------------| 4x
A|------------|
E|------------|
 
 
[Outro]
 
e|----------|
B|--0---0---|
G|--4---2---|
D|--4---2---| 3x
A|--2---0---|
E|----------|
 
Guitar nº2:
 (Natural Harmonics)
e|-----12-----|
B|--7------7--|
G|------------|
D|------------| 3x
A|------------|
E|------------|
 
Guitar nº3:
 
e|----------10------10b12--|--12b14----12-----------------------------|
B|------/12-----12---------|--------15----15p12-----------------------|
G|--4----------------------|--------------------14p12-----------------|
D|--4----------------------|--------------------------14----14-12b14--|
A|--2----------------------|-----------------------------14-----------|
E|-------------------------|------------------------------------------|
 
e|--12h13p12----12---------------------------------------------|
B|-----------15----15-12h13p12----15---------------------------|
G|-----------------------------14----14\11-11h12p11\9----9b11--|
D|----------------------------------------------------11-------|
A|-------------------------------------------------------------|
E|-------------------------------------------------------------|
            
Submit corrections

↑ Back to top | Tablatures and chords for acoustic guitar and electric guitar, ukulele, drums are parodies/interpretations of the original songs. You may use it for private study, scholarship, research or language learning purposes only