» » »

Our Last Night - Symptoms Of A Failing System Tabs

Artists:  A B C D E F G H I J K L M N O P Q R S T U V W X Y Z # 

Symptoms Of A Failing System Tabs

(ver. 1) Click to play this song!
Our Last Night
 Rating:
3.8/5 (5 votes)

 Symptoms Of A Failing System lessons Tabs too difficult? Try these video lessons and learn fast
 
                BAND: Our Last Night
TUNING: Db Ab Db Gb Bb Eb
.	=	Palm mute
x	=	Mute
h	=	Hammer on
p	=	Pull off
/\	=	Slide
^	=	Harmonic
This is a long tab...sorry about that. I couldn't think of a
short way to do it, considering this song has a bizarre
structure. I hope it makes sense.
So here it is...quiet a difficult song to figure out. I did this
tab to the best of my ability, please comment on it and let me
know what you think of it, or if you think certain parts are wrong.
Will try to do ESCAPE next.
...BE KIND, DON'T STEAL MY TABS...

Gtr 1 (Right Speaker)
-----------------------------------------------------------------------
|-----------------------------------------|
|---------------------10--10---------4-4--|
|----------------------x---x---------7-7--|
|--5--3--5--0-0-0-0-0--8-0-8--5-3-5-------|
|--5--3--5--0-0-0-0-0----0----5-3-5-------|
|--5--3--5--0-0-0-0-0----0----5-3-5-------|
pm          . . . . .    .

|--------------------------------6-----|
|---------------------10--10-------10--|
|----------------------x---x-----------|
|--5--3--5--0-0-0-0-0--8-0-8--0--------|
|--5--3--5--0-0-0-0-0----0----0--------|
|--5--3--5--0-0-0-0-0----0----0--------|
pm          . . . . .    .    .

|----------------------------------------|
|---------------------10--10-------------|
|----------------------x---x-----3----3--|
|--5--3--5--0-0-0-0-0--8-0-8--0-----7----|
|--5--3--5--0-0-0-0-0----0----0----------|
|--5--3--5--0-0-0-0-0----0----0----------|
pm          . . . . .    .    .

|----------------------------------------------------------------|
|---------------------10--10-------------------------------------|
|----------------------x---x-------------------------------------|
|--5--3--5--0-0-0-0-0--8-0-8---3----3--(GTR 2)--3----3--(GTR 2)--|
|--5--3--5--0-0-0-0-0----0--------7---------------7--------------|
|--5--3--5--0-0-0-0-0----0---------------------------------------|
pm          . . . . .    .

|------------------------------------|\
|------------------------------------||
|-----7-----------0h2h3--------------||
|--5--8--5--0h1h3-------------0h3h5--||
|--5-----5--------------0h1h3--------||
|--5-----5---------------------------||
                                     x2
|------------------------------|      |
|-----------8p6----------------|      |
|-----7----------7-------------|      |
|--5--8--5----------8h10--5h7--|      |
|--5-----5---------------------|      |
|--5-----5---------------------|      /

|------------------------------------|
|------------------------------------|
|------------------------------------|
|--8-8-8-8-8-8-8-8--7-7-7-7-7-7-7-7--|
|------------------------------------|
|------------------------------------|
pm . . . . . . . .  . . . . . . . .

|---------------------------------------------|
|---------------------------------------------|
|---------------------------------------1010--|
|--5-5-5-5-5-5-5-5-5-5--3/5-5-5-5-5-5-5--x-x--|
|--5-5-5-5-5-5-5-5-5-5--3/5-5-5-5-5-5-5--8-8--|
|--5-5-5-5-5-5-5-5-5-5--3/5-5-5-5-5-5-5-------|

|-----------------------------------------------------|
|-----------------------------------------------------|
|-------------101010101010-------------5/7-7-7-7-7-7--|
|--1-1-1-1-1---x-x-x-x-x-x--1-1-1-1-1--x/x-x-x-x-x-x--|
|--1-1-1-1-1---8-8-8-8-8-8--1-1-1-1-1--3/5-5-5-5-5-5--|
|--1-1-1-1-1----------------1-1-1-1-1-----------------|

|----------------------------------------------------------------|
|----------------------------------------------------------------|
|-------------14/15\14-10-10/12---------------------------10-10--|
|--5-5-5-5-5---x--x--x--x--x--x--3/5-5-5-5-5-5-5-5-5-5-5---x--x--|
|--5-5-5-5-5--12/13\12--8--8/10--3/5-5-5-5-5-5-5-5-5-5-5---8--8--|
|--5-5-5-5-5---------------------3/5-5-5-5-5-5-5-5-5-5-5---------|

|-----------------------------------------------------|
|-----------------------------------------------------|
|-------------101010101010-------------5/7-7-7-7-7-7--|
|--1-1-1-1-1---x-x-x-x-x-x--1-1-1-1-1--x/x-x-x-x-x-x--|
|--1-1-1-1-1---8-8-8-8-8-8--1-1-1-1-1--3/5-5-5-5-5-5--|
|--1-1-1-1-1----------------1-1-1-1-1-----------------|

|-------------------------------------|
|-------------------------------------|
|----------------------0--------0-----|
|--(Bass Only)---1--3--------5-----3--|
|-------------------------3--------3--|
|----------------------------------3--|

|---------------------------------------------------|\
|--10-10-10-10-10-10-10-10-10-10-10-10-10-10-10-10--||
|--12-12-12-12-12-12-12-12-12-12-12-12-12-12-12-12--||
|---------------------------------------------------|x2
|---------------------------------------------------||
|---------------------------------------------------|/
pm .. .. .. .. .. .. .. .. .. .. .. .. .. .. .. ..

|-----------------------------|
|-----------------------------|
|--------0--------0-----------|
|--1--3--------5-----3-3-3-3--|
|-----------3--------3-3-3-3--|
|--------------------3-3-3-3--|

|-----------------------------------|\
|-----------------------------------| \
|-----------------------------------|  \
|--1-1-1-1-1-1-1-1-1-1-1-1-1-1-1-1--|   \
|--1-1-1-1-1-1-1-1-1-1-1-1-1-1-1-1--|    \ 
|--1-1-1-1-1-1-1-1-1-1-1-1-1-1-1-1--|     \
                                           |
|-----------------------------------|      |
|-----------------------------------|      |
|-----------------------------------|      |
|--1-1-1-1-1-1-1-1-1-1-1-1-1-1-1-1--|      |
|--1-1-1-1-1-1-1-1-1-1-1-1-1-1-1-1--|      |
|--1-1-1-1-1-1-1-1-1-1-1-1-1-1-1-1--|      |
                                          x2 
|-----------------------------------------||
|---------------------10--10---------4----||
|----------------------x---x-----------7--||
|--5--3--5--0-0-0-0-0--8-0-8--5-3-5-------||
|--5--3--5--0-0-0-0-0----0----5-3-5-------||
|--5--3--5--0-0-0-0-0----0----5-3-5-------||
pm          . . . . .    .                 /
                                          /
|------------------------------|         /
|---------------10--10--8------|        /
|----------------x---x-----10--|       /          
|--5--0-0-0-0-0--8-0-8---------|      /
|--5--0-0-0-0-0----0-----------|     /
|--5--0-0-0-0-0----0-----------|    /

|------------------------------------|
|------------------------------------|
|-----7-----------0h2h3--------------|
|--5--8--5--0h1h3-------------0h3h5--|
|--5-----5--------------0h1h3--------|
|--5-----5---------------------------|

|------------------------------|
|-----------8p6----------------|
|-----7----------7-------------|
|--5--8--5----------8h10--5h7--|
|--5-----5---------------------|
|--5-----5---------------------|

(Half Time)
|------------------------------------|
|------------------------------------|
|-----7-----------0h2h3--------------|
|--5--8--5--0h1h3-------------0h3h5--|
|--5-----5--------------0h1h3--------|
|--5-----5---------------------------|

|---------------------------|
|---------------------------|
|-----7-----3---------------|
|--5--8--5-------0---0---0--|
|--5-----5-----5---5---5----|
|--5-----5------------------|

|-----------------------|
|-----------------------|
|--------0--------0-----|
|--1--3--------5-----3--|
|-----------3--------3--|
|--------------------3--|

|------------------------------------|
|------------------------------------|
|-----7-----------0h2h3--------------|
|--5--8--5--0h1h3-------------0h3h5--|
|--5-----5--------------0h1h3--------|
|--5-----5---------------------------|

|-----------------------|
|-----------------------|
|--------0--------0-----|
|--1--3--------5-----3--|
|-----------3--------3--|
|--------------------3--|

|--------------------------------------|
|--------------------------------------|
|--------------------------------------|
|--------------------------------------|
|--------5------------5-------------3--|
|--5-3-5----5-3-5-3-5-----5-3-5-3-5----|

|--------------------------------------|
|--------------------------------------|
|--------------------------------------|
|--------------------------------------|
|--------5------------5------------5---|
|--5-3-5----5-3-5-3-5----5-3-5-3-5-----|

|--------------------------------|\
|-------------------------0--5^--||
|-------------------------7--5^--||
|--5\---5-5-5--0-0-0-0-0-----5^--|x3
|--5\---5-5-5--0-0-0-0-0---------||
|--5\---5-5-5--0-0-0-0-0---------|/
pm             . . . . .

|-----------------------------------|\
|-----------------------------------| \
|-----------------------------------|  \
|--1-1-1-1-1-1-1-1-1-1-1-1-1-1-1-1--|   \
|--1-1-1-1-1-1-1-1-1-1-1-1-1-1-1-1--|    \ 
|--1-1-1-1-1-1-1-1-1-1-1-1-1-1-1-1--|     \
                                           |
|-----------------------------------|      |
|-----------------------------------|      |
|-----------------------------------|      |
|--1-1-1-1-1-1-1-1-1-1-1-1-1-1-1-1--|      |
|--1-1-1-1-1-1-1-1-1-1-1-1-1-1-1-1--|      |
|--1-1-1-1-1-1-1-1-1-1-1-1-1-1-1-1--|      |
                                          x2 
|-----------------------------------------||
|---------------------10--10---------4----||
|----------------------x---x-----------7--||
|--5--3--5--0-0-0-0-0--8-0-8--5-3-5-------||
|--5--3--5--0-0-0-0-0----0----5-3-5-------||
|--5--3--5--0-0-0-0-0----0----5-3-5-------||
pm          . . . . .    .                 /
                                          /
|------------------------------|         /
|---------------10--10--8------|        /
|----------------x---x-----10--|       /          
|--5--0-0-0-0-0--8-0-8---------|      /
|--5--0-0-0-0-0----0-----------|     /
|--5--0-0-0-0-0----0-----------|    /

|----------------------------------|
|----------------------------------|
|----------------------------------|
|--5-5-5-5-5-5-5-5-5--8-8-8-8-8-8--|
|----------------------------------|
|----------------------------------|

|---------------------------------------------|
|---------------------------------------------|
|---------------------------------------1010--|
|--5-5-5-5-5-5-5-5-5-5--3/5-5-5-5-5-5-5--x-x--|
|--5-5-5-5-5-5-5-5-5-5--3/5-5-5-5-5-5-5--8-8--|
|--5-5-5-5-5-5-5-5-5-5--3/5-5-5-5-5-5-5-------|

|-----------------------------------------------------|
|-----------------------------------------------------|
|-------------101010101010-------------5/7-7-7-7-7-7--|
|--1-1-1-1-1---x-x-x-x-x-x--1-1-1-1-1--x/x-x-x-x-x-x--|
|--1-1-1-1-1---8-8-8-8-8-8--1-1-1-1-1--3/5-5-5-5-5-5--|
|--1-1-1-1-1----------------1-1-1-1-1-----------------|

|----------------------------------------------------------------|
|----------------------------------------------------------------|
|-------------14/15\14-10-10/12---------------------------10-10--|
|--5-5-5-5-5---x--x--x--x--x--x--3/5-5-5-5-5-5-5-5-5-5-5---x--x--|
|--5-5-5-5-5--12/13\12--8--8/10--3/5-5-5-5-5-5-5-5-5-5-5---8--8--|
|--5-5-5-5-5---------------------3/5-5-5-5-5-5-5-5-5-5-5---------|

|-----------------------------------------------------|
|-----------------------------------------------------|
|-------------101010101010-------------5/7-7-7-7-7-7--|
|--1-1-1-1-1---x-x-x-x-x-x--1-1-1-1-1--x/x-x-x-x-x-x--|
|--1-1-1-1-1---8-8-8-8-8-8--1-1-1-1-1--3/5-5-5-5-5-5--|
|--1-1-1-1-1----------------1-1-1-1-1-----------------|

|---------------------------------------|\
|---------------------------------------||
|----------------------0------0------0--||
|--1------3----------3------3------3----|x2
|--1------3--------5------1------0------||
|--1------3------5----------------------|/

|----------------|
|----------------|
|----------------|
|--1------3------|
|--1------3------|
|--1------3------|

|-----------------------------------|\
|-----------------------------------||
|-----------------------------------||
|--5-5-5-5-5-5-5-5-5-5-5-5-5-5-5-5--||
|--5-5-5-5-5-5-5-5-5-5-5-5-5-5-5-5--||
|--5-5-5-5-5-5-5-5-5-5-5-5-5-5-5-5--||
                                     |
|-----------------------------------||
|-----------------------------------||
|-----------------------------------||
|--5-5-5-5-5-5-5-5-5-5-5-5-5-5-5-5--||
|--5-5-5-5-5-5-5-5-5-5-5-5-5-5-5-5--||
|--5-5-5-5-5-5-5-5-5-5-5-5-5-5-5-5--||
                                     x2
|-----------------------------------||
|-----------------------------------||
|-----------------------------------||
|--1-1-1-1-1-1-1-1-1-1-1-1-1-1-1-1--||
|--1-1-1-1-1-1-1-1-1-1-1-1-1-1-1-1--||
|--1-1-1-1-1-1-1-1-1-1-1-1-1-1-1-1--||
                                     |
|-----------------------------------||
|-----------------------------------||
|-----------------------------------||
|--3-3-3-3-3-3-3-3-3-3-3-3-3-3-3-3--||
|--3-3-3-3-3-3-3-3-3-3-3-3-3-3-3-3--||
|--3-3-3-3-3-3-3-3-3-3-3-3-3-3-3-3--|/

|-----------------------------------|
|-----------------------------------|
|-----------------------------------|
|--5-5-5-5-5-5-5-5-5-5-5-5-5-5-5-5--|
|--5-5-5-5-5-5-5-5-5-5-5-5-5-5-5-5--|
|--5-5-5-5-5-5-5-5-5-5-5-5-5-5-5-5--|

|-----------------------------------|
|-----------------------------------|
|-----------------------------------|
|--5-5-5-5-5-5-5-5-5-5-5-5-5-5-5-5--|
|--5-5-5-5-5-5-5-5-5-5-5-5-5-5-5-5--|
|--5-5-5-5-5-5-5-5-5-5-5-5-5-5-5-5--|

|-----------------------------------|
|-----------------------------------|
|-----------------------------------|
|--1-1-1-1-1-1-1-1-1-1-1-1-1-1-1-1--|
|--1-1-1-1-1-1-1-1-1-1-1-1-1-1-1-1--|
|--1-1-1-1-1-1-1-1-1-1-1-1-1-1-1-1--|

|------------------------------------|
|------------------------------------|
|------------------------------------|
|--0-0-0-0-0-0-0-0--3-3-3-3-3-3-3-3--|
|--0-0-0-0-0-0-0-0--3-3-3-3-3-3-3-3--|
|--0-0-0-0-0-0-0-0--3-3-3-3-3-3-3-3--|

|--------------------------------------------|
|---------------------10--10-----------4--4--|
|----------------------x---x-----------7--7--|
|--5--3--5--0-0-0-0-0--8-0-8--5--3--5--------|
|--5--3--5--0-0-0-0-0----0----5--3--5--------|
|--5--3--5--0-0-0-0-0----0----5--3--5--------|
pm          . . . . .    .

|-------------------------------------|
|---------------------10--10----------|
|----------------------x---x----------|
|--5--3--5--0-0-0-0-0--8-0-8----------|
|--5--3--5--0-0-0-0-0----0------------|
|--5--3--5--0-0-0-0-0----0------0--0--|
pm          . . . . .    .

|--------------------------------------------|
|---------------------10--10-----------4-----|
|----------------------x---x--------------7--|
|--5--3--5--0-0-0-0-0--8-0-8--5--3--5--------|
|--5--3--5--0-0-0-0-0----0----5--3--5--------|
|--5--3--5--0-0-0-0-0----0----5--3--5--------|
pm          . . . . .    .

|----------------------------------------|
|----------------------------------------|
|----------------------------------------|
|--5--3--5--0-0-0-0-0--------(Let Ring)--|
|--5--3--5--0-0-0-0-0--------------------|
|--5--3--5--0-0-0-0-0---0--0-------------|
pm          . . . . .

Gtr 2 (Left Speaker)
-----------------------------------------------------------------------
|-----------------------------------------|
|---------------------10--10---------4-4--|
|----------------------x---x---------7-7--|
|--5--3--5--0-0-0-0-0--8-0-8--5-3-5-------|
|--5--3--5--0-0-0-0-0----0----5-3-5-------|
|--5--3--5--0-0-0-0-0----0----5-3-5-------|
pm          . . . . .    .

|--------------------------------6-----|
|---------------------10--10-------10--|
|----------------------x---x-----------|
|--5--3--5--0-0-0-0-0--8-0-8--0--------|
|--5--3--5--0-0-0-0-0----0----0--------|
|--5--3--5--0-0-0-0-0----0----0--------|
pm          . . . . .    .    .

|----------------------------------------|
|---------------------10--10-------------|
|----------------------x---x-----0----0--|
|--5--3--5--0-0-0-0-0--8-0-8--0-----3----|
|--5--3--5--0-0-0-0-0----0----0----------|
|--5--3--5--0-0-0-0-0----0----0----------|
pm          . . . . .    .    .

|---------------------------------------------------------------|
|---------------------10--10------------------------------------|
|----------------------x---x------------------------------------|
|--5--3--5--0-0-0-0-0--8-0-8--(GTR 1)--3----3--(GTR 1)--3----3--|
|--5--3--5--0-0-0-0-0----0----------------7----------------7----|
|--5--3--5--0-0-0-0-0----0--------------------------------------|
pm          . . . . .    .

|------------------------------------|\
|------------------------------------||
|-----7-----------0h2h3--------------||
|--5--8--5--0h1h3-------------0h3h5--||
|--5-----5--------------0h1h3--------||
|--5-----5---------------------------||
                                      x2
|-----------6p5---------------|     /
|-------------------6h8-------|    / 
|-----7----------7-------3h5--|   /
|--5--8--5--------------------|  /
|--5-----5--------------------| /
|--5-----5--------------------|/

|------------------------------------|
|------------------------------------|
|--7-7-7-7-7-7-7-7--5-5-5-5-5-5-5-5--|
|------------------------------------|
|------------------------------------|
|------------------------------------|
pm . . . . . . . .  . . . . . . . .

|----------------------------------------------|\
|---------------------------------------10-10--| \
|---------------------------------------10-10--|  \
|--5-5-5-5-5-5-5-5-5-5--3/5-5-5-5-5-5-5--------|   \
|--5-5-5-5-5-5-5-5-5-5--3/5-5-5-5-5-5-5--------|    \   
|--5-5-5-5-5-5-5-5-5-5--3/5-5-5-5-5-5-5--------|     \
                                                      x2
|-----------------------------------------------------||
|-------------101010101010----------------------------||
|-------------101010101010-------------5/7-7-7-7-7-7--||
|--1-1-1-1-1----------------1-1-1-1-1--x/x-x-x-x-x-x--||
|--1-1-1-1-1----------------1-1-1-1-1--3/5-5-5-5-5-5--||
|--1-1-1-1-1----------------1-1-1-1-1-----------------|/

|--------------------------------------|
|---------------11-10-----11-10----10--|
|---------------------12--------12-----|
|--(BASS ONLY)-------------------------|
|--------------------------------------|
|--------------------------------------|

|-------------------------------------------------------|
|--13-11-----13-11-----13-11-----13-11-----13-11----11--|
|--------12--------12--------12--------12--------12-----|
|-------------------------------------------------------|
|-------------------------------------------------------|
|-------------------------------------------------------|

|-------------------------------------------------------|\
|--11-10-----11-10-----11-10-----11-10-----11-10----10--||
|--------12--------12--------12--------12--------12-----||
|-------------------------------------------------------|x3
|-------------------------------------------------------||
|-------------------------------------------------------|/

|-------------------------------------------------------|
|--13-11-----13-11-----13-11-----13-11-----13-11----11--|
|--------12--------12--------12--------12--------12-----|
|-------------------------------------------------------|
|-------------------------------------------------------|
|-------------------------------------------------------|

|-------------------------------------------------------|
|--11-10-----11-10-----11-10-----11-10-----11-10----10--|
|--------12--------12--------12--------12--------12-----|
|-------------------------------------------------------|
|-------------------------------------------------------|
|-------------------------------------------------------|

|-----------------------------------|\
|-----------------------------------| \
|-----------------------------------|  \
|--1-1-1-1-1-1-1-1-1-1-1-1-1-1-1-1--|   \
|--1-1-1-1-1-1-1-1-1-1-1-1-1-1-1-1--|    \
|--1-1-1-1-1-1-1-1-1-1-1-1-1-1-1-1--|     \
                                           |
|-----------------------------------|      |
|-----------------------------------|      |
|-----------------------------------|      |
|--1-1-1-1-1-1-1-1-1-1-1-1-1-1-1-1--|      |
|--1-1-1-1-1-1-1-1-1-1-1-1-1-1-1-1--|      |
|--1-1-1-1-1-1-1-1-1-1-1-1-1-1-1-1--|      |
                                           x2
|-----------------------------------------||
|---------------------10--10---------4----||
|----------------------x---x-----------7--||
|--5--3--5--0-0-0-0-0--8-0-8--5-3-5-------||
|--5--3--5--0-0-0-0-0----0----5-3-5-------||
|--5--3--5--0-0-0-0-0----0----5-3-5-------||
pm          . . . . .    .                 |
                                           /
|-----------------------6------|          /
|---------------10--10-----10--|         /
|----------------x---x---------|        /
|--5--0-0-0-0-0--8-0-8---------|       /
|--5--0-0-0-0-0----0-----------|      / 
|--5--0-0-0-0-0----0-----------|     /

|------------------------------------|
|------------------------------------|
|-----7-----------0h2h3--------------|
|--5--8--5--0h1h3-------------0h3h5--|
|--5-----5--------------0h1h3--------|
|--5-----5---------------------------|

|-----------6p5---------------|
|-------------------6h8-------|
|-----7----------7-------3h5--|
|--5--8--5--------------------|
|--5-----5--------------------|
|--5-----5--------------------|

(Half Time)
|----------------------|
|----------------------|
|-----7----------------|
|--5--8--5----(GTR 1)--|
|--5-----5-------------|
|--5-----5-------------|

|---------------------------|
|---------------------------|
|-----7-----3---------------|
|--5--8--5-------0---0---0--|
|--5-----5-----5---5---5----|
|--5-----5------------------|

|-----------------------------------|
|--8-8-8-8-8-8-8-8-8-8-8-8-8-8-8-8--|
|--x-x-x-x-x-x-x-x-x-x-x-x-x-x-x-x--|
|--5-5-5-5-5-5-5-5-5-5-5-5-5-5-5-5--|
|-----------------------------------|
|-----------------------------------|

|------------------------------------------|
|-10-10-10-10-11-11--8-8-8-8-8-8-----------|
|--x--x--x--x--x--x--x-x-x-x-x-x-----------|
|--7--7--7--8--8--8--5-5-5-5-5-5--3-3-3-3--|
|---------------------------------3-3-3-3--|
|---------------------------------3-3-3-3--|

|------------------------------------|
|------------------------------------|
|-----7-----------0h2h3--------------|
|--5--8--5--0h1h3-------------0h3h5--|
|--5-----5--------------0h1h3--------|
|--5-----5---------------------------|

|-----------6p5---------------|
|-------------------6h8-------|
|-----7----------7-------3h5--|
|--5--8--5--------------------|
|--5-----5--------------------|
|--5-----5--------------------|

|-----------------------------------|
|--8-8-8-8-8-8-8-8-8-8-8-8-8-8-8-8--|
|--x-x-x-x-x-x-x-x-x-x-x-x-x-x-x-x--|
|--5-5-5-5-5-5-5-5-5-5-5-5-5-5-5-5--|
|-----------------------------------|
|-----------------------------------|

|------------------------------------------|
|-10-10-10-10-11-11--8-8-8-8-8-8--6-6-6-6--|
|--x--x--x--x--x--x--x-x-x-x-x-x--x-x-x-x--|
|--7--7--7--8--8--8--5-5-5-5-5-5--3-3-3-3--|
|------------------------------------------|
|------------------------------------------|

|-----------------------------------|
|--8-8-8-8-8-8-8-8-8-8-8-8-8-8-8-8--|
|--x-x-x-x-x-x-x-x-x-x-x-x-x-x-x-x--|
|--5-5-5-5-5-5-5-5-5-5-5-5-5-5-5-5--|
|-----------------------------------|
|-----------------------------------|

|--6----6----6----6----6----6----6----6-----|
|----10---10---10---10---10---10---10---10--|
|-------------------------------------------|
|-------------------------------------------|
|-------------------------------------------|
|-------------------------------------------|

|-----------------------------|
|-----------------------------|
|-------------------------5^--|
|--5\----(GTR 1 ONLY)-----5^--|
|--5\-------------------------|
|--5\-------------------------|

|--------------------------------|\
|-------------------------0------||
|-------------------------7--5^--||
|--5\---5-5-5--0-0-0-0-0-----5^--|x2
|--5\---5-5-5--0-0-0-0-0---------||
|--5\---5-5-5--0-0-0-0-0---------|/
pm             . . . . .

|-----------------------------------|\
|-----------------------------------| \
|-----------------------------------|  \
|--1-1-1-1-1-1-1-1-1-1-1-1-1-1-1-1--|   \
|--1-1-1-1-1-1-1-1-1-1-1-1-1-1-1-1--|    \
|--1-1-1-1-1-1-1-1-1-1-1-1-1-1-1-1--|     \
                                           |
|-----------------------------------|      |
|-----------------------------------|      |
|-----------------------------------|      |
|--1-1-1-1-1-1-1-1-1-1-1-1-1-1-1-1--|      |
|--1-1-1-1-1-1-1-1-1-1-1-1-1-1-1-1--|      |
|--1-1-1-1-1-1-1-1-1-1-1-1-1-1-1-1--|      |
                                           x2
|-----------------------------------------||
|---------------------10--10---------4----||
|----------------------x---x-----------7--||
|--5--3--5--0-0-0-0-0--8-0-8--5-3-5-------||
|--5--3--5--0-0-0-0-0----0----5-3-5-------||
|--5--3--5--0-0-0-0-0----0----5-3-5-------||
pm          . . . . .    .                 |
                                           /
|-----------------------6------|          /
|---------------10--10-----10--|         /
|----------------x---x---------|        /
|--5--0-0-0-0-0--8-0-8---------|       /
|--5--0-0-0-0-0----0-----------|      / 
|--5--0-0-0-0-0----0-----------|     /

|--------------------------------------|
|--------------------------------------|
|--------------------------------------|
|--1-1-1-1-1-1-1-1-1--3-3-3-3-3-3-3-3--|
|--------------------------------------|
|--------------------------------------|

|----------------------------------------------|
|---------------------------------------10-10--|
|---------------------------------------10-10--|
|--5-5-5-5-5-5-5-5-5-5--3/5-5-5-5-5-5-5--------|
|--5-5-5-5-5-5-5-5-5-5--3/5-5-5-5-5-5-5--------|
|--5-5-5-5-5-5-5-5-5-5--3/5-5-5-5-5-5-5--------|

|-----------------------------------------------------|
|-------------101010101010----------------------------|
|-------------101010101010-------------5/7-7-7-7-7-7--|
|--1-1-1-1-1----------------1-1-1-1-1--x/x-x-x-x-x-x--|
|--1-1-1-1-1----------------1-1-1-1-1--3/5-5-5-5-5-5--|
|--1-1-1-1-1----------------1-1-1-1-1-----------------|

|---------------------------------------------------------|
|--------------------------------------------------10-10--|
|--------------------------------------------------10-10--|
|--5-5-5-5-5-5-5-5-5-5-5--3/5-5-5-5-5-5-5-5-5-5-5---------|
|--5-5-5-5-5-5-5-5-5-5-5--3/5-5-5-5-5-5-5-5-5-5-5---------|
|--5-5-5-5-5-5-5-5-5-5-5--3/5-5-5-5-5-5-5-5-5-5-5---------|

|-----------------------------------------------------|
|-------------101010101010----------------------------|
|-------------101010101010-------------5/7-7-7-7-7-7--|
|--1-1-1-1-1----------------1-1-1-1-1--x/x-x-x-x-x-x--|
|--1-1-1-1-1----------------1-1-1-1-1--3/5-5-5-5-5-5--|
|--1-1-1-1-1----------------1-1-1-1-1-----------------|

|---------------------------|
|---------------------------|
|--12-----14/15\14---7------|
|---x------x--x--x---x------|
|--10-----12/13\12---5------|
|---------------------------|

|---------------------------------------------------|
|---------------------------------------------------|
|--12-12-12-12-12-12-12-12-12-12-12-12-12-12-12-12--|
|---x--x--x--x--x--x--x--x--x--x--x--x--x--x--x--x--|
|--10-10-10-10-10-10-10-10-10-10-10-10-10-10-10-10--|
|---------------------------------------------------|

|---------------------------------------------------|
|--11-11-11-11-11-11-11-11-11-11-11-11-11-11-11-11--|
|--14-14-14-14-14-14-14-14-14-14-14-14-14-14-14-14--|
|--12-12-12-12-12-12-12-12-12-12-12-12-12-12-12-12--|
|---------------------------------------------------|
|---------------------------------------------------|

|-----------------------------------|
|-----------------------------------|
|--7-7-7-7-7-7-7-7-7-7-7-7-7-7-7-7--|
|--x-x-x-x-x-x-x-x-x-x-x-x-x-x-x-x--|
|--5-5-5-5-5-5-5-5-5-5-5-5-5-5-5-5--|
|-----------------------------------|

|---------------------|
|---------------------|
|--12----\----7-------|
|---x---------x-------|
|--10----\----5-------|
|---------------------|

|-----------------------------------|\
|-----------------------------------||
|-----------------------------------||
|--5-5-5-5-5-5-5-5-5-5-5-5-5-5-5-5--||
|--5-5-5-5-5-5-5-5-5-5-5-5-5-5-5-5--||
|--5-5-5-5-5-5-5-5-5-5-5-5-5-5-5-5--||
                                     |
|-----------------------------------||
|-----------------------------------||
|-----------------------------------||
|--5-5-5-5-5-5-5-5-5-5-5-5-5-5-5-5--||
|--5-5-5-5-5-5-5-5-5-5-5-5-5-5-5-5--||
|--5-5-5-5-5-5-5-5-5-5-5-5-5-5-5-5--||
                                     x2
|-----------------------------------||
|-----------------------------------||
|-----------------------------------||
|--1-1-1-1-1-1-1-1-1-1-1-1-1-1-1-1--||
|--1-1-1-1-1-1-1-1-1-1-1-1-1-1-1-1--||
|--1-1-1-1-1-1-1-1-1-1-1-1-1-1-1-1--||
                                     |
|-----------------------------------||
|-----------------------------------||
|-----------------------------------||
|--3-3-3-3-3-3-3-3-3-3-3-3-3-3-3-3--||
|--3-3-3-3-3-3-3-3-3-3-3-3-3-3-3-3--||
|--3-3-3-3-3-3-3-3-3-3-3-3-3-3-3-3--|/

|-----------------------------------|
|-----------------------------------|
|-----------------------------------|
|--5-5-5-5-5-5-5-5-5-5-5-5-5-5-5-5--|
|--5-5-5-5-5-5-5-5-5-5-5-5-5-5-5-5--|
|--5-5-5-5-5-5-5-5-5-5-5-5-5-5-5-5--|

|-----------------------------------|
|-----------------------------------|
|-----------------------------------|
|--5-5-5-5-5-5-5-5-5-5-5-5-5-5-5-5--|
|--5-5-5-5-5-5-5-5-5-5-5-5-5-5-5-5--|
|--5-5-5-5-5-5-5-5-5-5-5-5-5-5-5-5--|

|-----------------------------------|
|-----------------------------------|
|-----------------------------------|
|--1-1-1-1-1-1-1-1-1-1-1-1-1-1-1-1--|
|--1-1-1-1-1-1-1-1-1-1-1-1-1-1-1-1--|
|--1-1-1-1-1-1-1-1-1-1-1-1-1-1-1-1--|

|------------------------------------|
|------------------------------------|
|------------------------------------|
|--0-0-0-0-0-0-0-0--3-3-3-3-3-3-3-3--|
|--0-0-0-0-0-0-0-0--3-3-3-3-3-3-3-3--|
|--0-0-0-0-0-0-0-0--3-3-3-3-3-3-3-3--|

|--------------------------------------------|
|---------------------10--10-----------4--4--|
|----------------------x---x-----------7--7--|
|--5--3--5--0-0-0-0-0--8-0-8--5--3--5--------|
|--5--3--5--0-0-0-0-0----0----5--3--5--------|
|--5--3--5--0-0-0-0-0----0----5--3--5--------|
pm          . . . . .    .

|-------------------------------------|
|---------------------10--10----------|
|----------------------x---x----------|
|--5--3--5--0-0-0-0-0--8-0-8----------|
|--5--3--5--0-0-0-0-0----0------------|
|--5--3--5--0-0-0-0-0----0------0--0--|
pm          . . . . .    .

|--------------------------------------------|
|---------------------10--10-----------4-----|
|----------------------x---x--------------7--|
|--5--3--5--0-0-0-0-0--8-0-8--5--3--5--------|
|--5--3--5--0-0-0-0-0----0----5--3--5--------|
|--5--3--5--0-0-0-0-0----0----5--3--5--------|
pm          . . . . .    .

|----------------------------------------|
|----------------------------------------|
|----------------------------------------|
|--5--3--5--0-0-0-0-0--------(Let Ring)--|
|--5--3--5--0-0-0-0-0--------------------|
|--5--3--5--0-0-0-0-0---0--0-------------|
pm          . . . . .

ENJOY
----------------------------------------------------------------------------------
            
Submit corrections


        Symptoms Of A Failing System lessons Hard to play? Try these video lessons and learn fast Symptoms Of A Failing System lessons
        
↑ Back to top | Tablatures and chords for acoustic guitar and electric guitar, ukulele, drums are parodies/interpretations of the original songs. You may use it for private study, scholarship, research or language learning purposes only