» » »

Otis Redding - I Cant Turn You Loose Bass

Artists:  A B C D E F G H I J K L M N O P Q R S T U V W X Y Z # 

I Cant Turn You Loose Bass

(ver. 2) Click to play this song!
Otis Redding
 Rating:
4.3/5 (15 votes)

 I Cant Turn You Loose lessons Tabs too difficult? Try these video lessons and learn fast
 
                  [Intro & Interlude]
  Q=126
  4/4
   Gtr I
   E E E E +E  E E E   E E E E +E  E E E     E E E E +E  E E E
G|-------------------|-----0-3-(3)-2-0---||--------------------|
D|-------------------|---2-------------0-||o-------------------|
A|-3-----3-(3)-------|-3-----------------||o-3-----3-(3)-------|
E|---5-3-------5-3-5-|-------------------||----5-3-------5-3-5-|


   E E E E +E  E E E   E E E E +E  E E E
G|-------------------|-------------------|
D|-------------------|-------------------|
A|-3-----3-(3)-------|-3-----3-(3)-------|
E|---5-3-------5-3-5-|---5-3-------5-3-5-|


   E E E E +E  E E E   E E E E +E  E E E
G|-------------------|-------------------|
D|-------------------|-------------------|
A|-3-----3-(3)-------|-3-----3-(3)-------|
E|---5-3-------5-3-5-|---5-3-------5-3-5-|


   E E E E +E  E E E   E E E E +E  E E E   E E E E E E E E
G|-------------------|-------------------|-----------------||
D|-------------------|-------------------|---2---3---4---5-||
A|-3-----3-(3)-------|-3-----3-(3)-----5-|-----------------||
E|---5-3-------5-3-5-|---5-3-------5-3---|-----------------||


  [1st & 2nd Verses]
   E E E E +E  E E E   E E E E +E  E E E
G|-------------------|-------------------|
D|-------------------|-------------------|
A|-3-----3-(3)-------|-3-----3-(3)-------|
E|---5-3-------5-3-5-|---5-3-------5-3-5-|


   E E E E +E  E E E   E E E E +E  E E E
G|-------------------|-------------------|
D|-------------------|-------------------|
A|-3-----3-(3)-------|-3-----3-(3)-------|
E|---5-3-------5-3-5-|---5-3-------5-3-5-|


   E E E E +E  E E E   E E E E +E  E E E
G|-------------------|-------------------|
D|-------------------|-------------------|
A|-3-----3-(3)-------|-3-----3-(3)-------|
E|---5-3-------5-3-5-|---5-3-------5-3-5-|


   E E E E +E  E E E   E E E E +E  E E E
G|-------------------|-------------------|
D|-------------------|-------------------|
A|-3-----3-(3)-------|-3-----3-(3)-----5-|
E|---5-3-------5-3-5-|---5-3-------5-3---|


   E E E E +E  E E E   E E E E +E  E E E
G|-------------------|-------------------|
D|-3-----3-(3)-------|-3-----3-(3)-------|
A|---5-3-------5-3-5-|---5-3-------5-3-5-|
E|-------------------|-------------------|


   E E E E +E  E E E   E E E E +E  E E E
G|-------------------|-------------------|
D|-3-----3-(3)-------|-3-----3-(3)-------|
A|---5-3-------5-3-5-|---5-3-------5-3---|
E|-------------------|-----------------5-|


   E E E E +E  E E E   E E E E +E  E E E
G|-------------------|-------------------|
D|-------------------|-------------------|
A|-3-----3-(3)-------|-3-----3-(3)-------|
E|---5-3-------5-3-5-|---5-3-------5-3-5-|


   E E E E +E  E E E   E E E E +E  E E E
G|-------------------|-------------------|
D|-------------------|-------------------|
A|-3-----3-(3)-------|-3-----3-(3)-----5-|
E|---5-3-------5-3-5-|---5-3-------5-3---|


   E E E E +E  E E E   E E E E +E  E E E
G|-------------------|-------------------|
D|-5-----5-(5)-------|-5-----5-(5)-----5-|
A|---7-5-------7-5-7-|---7-5-------7-5---|
E|-------------------|-------------------|


   E E E E +E  E E E   E E E E +E  E E E
G|-------------------|--------------------||
D|-3-----3-(3)-------|-3-----3-(3)-------o||
A|---5-3-------5-3-5-|---5-3-------5-3---o||
E|-------------------|-----------------5--||


  [Interlude]
   E E E E +E  E E E   E E E E +E  E E E
G|-------------------|-------------------|
D|-------------------|-------------------|
A|-3-----3-(3)-------|-3-----3-(3)-------|
E|---5-3-------5-3-5-|---5-3-------5-3-5-|


   E E E E +E  E E E   E E E E +E  E E E
G|-------------------|-------------------|
D|-------------------|-------------------|
A|-3-----3-(3)-------|-3-----3-(3)-----5-|
E|---5-3-------5-3-5-|---5-3-------5-3---|


   E E E E +E  E E E   E E E E +E  E E E   E E E E +E  E E E
G|-------------------|-------------------|-------------------|
D|-------------------|-------------------|-------------------|
A|-3-----3-(3)-------|-3-----3-(3)-------|-3-----3-(3)-----5-|
E|---5-3-------5-3-5-|---5-3-------5-3-5-|---5-3-------5-3---|


   E E E E E E E E   E E E E E E E E   E E E E E E E E
G|-----------------|-----------------|-------2---3---4-||
D|---2---3---4---5-|---2---3---4---5-|---5-------------||
A|-----------------|-----------------|-----------------||
E|-----------------|-----------------|-----------------||


   [Outro]
     E E E E +E  E E E   E E E E +E  E E E
G||--------------------|-------------------|
D||o-------------------|-------------------|
A||o-3-----3-(3)-------|-3-----3-(3)-------|
E||----5-3-------5-3-5-|---5-3-------5-3-5-|


   E E E E +E  E E E   E E E E +E  E E E   3x
G|-------------------|---------------------||
D|-------------------|--------------------o||
A|-3-----3-(3)-------|-3-----3-(3)--------o||
E|---5-3-------5-3-5-|---5-3-------5-3-5---||

            
Submit corrections


        I Cant Turn You Loose lessons Hard to play? Try these video lessons and learn fast I Cant Turn You Loose lessons
        
↑ Back to top | Tablatures and chords for acoustic guitar and electric guitar, ukulele, drums are parodies/interpretations of the original songs. You may use it for private study, scholarship, research or language learning purposes only