» » »

Osborne Joan - One Of Us Tabs

Artists:  A B C D E F G H I J K L M N O P Q R S T U V W X Y Z # 

One Of Us Tabs

(ver. 2) Click to play this song!
Osborne Joan
 Rating:
4/5 (4 votes)

 One Of Us lessons Tabs too difficult? Try these video lessons and learn fast
 
                Albium: One of us
=0D
Main riff1
|-2-2-4-5---------0-|
|---------2-2-2-3---|
|-------------------|
|-------------------|
|-------------------|
|-------------------|
What if god was one of us (etc.)
=0D
Main riff2 =

|-2-2-4-5---------0--0-0-0--------------|
|---------2-2-2-3----------3-2----------|
|------------------------------2--------|
|---------------------------------------|
|---------------------------------------|
|---------------------------------------|
Just a stranger on the bus trying to make his way home (etc.)
=0D
Main riff3
|-0-0-0---------0-0-0---------|
|-------3-2-0-2-------3-2-0---|
|---------------------------2-|
|-----------------------------|
|-----------------------------|
|-----------------------------|
Back up to heaven all alone just like a holy rolling stone =

Nobody calling on the phone except for the pope maybe in rome(etc.)
=0D
Well thats all i could figure out maybe i will finish it later but =

this should get you started. Send questions and comments to =
            
Submit corrections


        One Of Us lessons Hard to play? Try these video lessons and learn fast One Of Us lessons
        
↑ Back to top | Tablatures and chords for acoustic guitar and electric guitar, ukulele, drums are parodies/interpretations of the original songs. You may use it for private study, scholarship, research or language learning purposes only