Home » O » Orient Pearl »

Orient Pearl - Kasalanan Tabs

Artists:  A B C D E F G H I J K L M N O P Q R S T U V W X Y Z # 

Kasalanan Tabs

(ver. 1) Click to play this song!
Orient Pearl
 Rating:
4.3/5 (13 votes)
                [Intro/Verse]

e|-----------------------------------------------------------------|
B|----3/5/7-5-3/5-5------------------------------------------------|
G|----4/6/7-6-4/6-6------------------------------------------------|
D|-----------------------------------------------------------------|
A|-----------------------------------------------------------------|
E|-----------------------------------------------------------------|

e|-----------------------------------------------------------------|
B|----3/5/7-5-5-3-2------------------------------------------------|
G|----4/6/7-6-6-4-2------------------------------------------------|
D|-----------------------------------------------------------------|
A|-----------------------------------------------------------------|
E|-----------------------------------------------------------------|

e|--------------------12-------------------------------------------|
B|----10/12-10-----10----------------------------------------------|
G|-----9/11--9---9-------------------------------------------------|
D|-----------------------------------------------------------------|
A|-----------------------------------------------------------------|
E|-----------------------------------------------------------------|

e|-----------------------------------------------------------------|
B|----15\14-14\10-10/12\10-----------------------------------------|
G|----14\13-13\9---9/11\9------------------------------------------|
D|-----------------------------------------------------------------|
A|-----------------------------------------------------------------|
E|-----------------------------------------------------------------|

e|-----------------------------------------------------------------|
B|------------10----10h12-10----10\--------------------------------|
G|-------9/11----11----------11--9\--------------------------------|
D|-----------------------------------------------------------------|
A|-----------------------------------------------------------------|
E|-----------------------------------------------------------------|


[Ending Before Chorus]

e|-----------------------------------------------------------------|
B|----15\14-14\10-10/12-9------------------------------------------|
G|----14\13-13\9---9/11-9------------------------------------------|
D|-----------------------------------------------------------------|
A|-----------------------------------------------------------------|
E|-----------------------------------------------------------------|


[Guitar Solo]

e|-----------------------------------------------------------------|
B|-----------------------------------------------------------------|
G|--------2---2h4-4-4-2--------------------------------------------|
D|----2h4---4------------------------------------------------------|
A|-----------------------------------------------------------------|
E|-----------------------------------------------------------------|

e|-----------------------------------------------------------------|
B|-----------------------------------------------------------------|
G|--------2---2h4-4b-4b-4b-----------------------------------------|
D|----2h4---4------------------------------------------------------|
A|-----------------------------------------------------------------|
E|-----------------------------------------------------------------|

e|-----------------------7-5-4h5p4---------------------------------|
B|--------5—-5h7-5h7-7-------------5/7-7---------------------------|
G|----4h6----------------------------------------------------------|
D|-----------------------------------------------------------------|
A|-----------------------------------------------------------------|
E|-----------------------------------------------------------------|
e|-------------------------17------17------17------17-----17-------|
B|----7---7-9-10-9/17-17fb----17fb----17fb----17fb----17b----------|
G|------9----------------------------------------------------14----|
D|-----------------------------------------------------------------|
A|-----------------------------------------------------------------|
E|-----------------------------------------------------------------|

e|-----------------------------------------------------------------|
B|----19\17-17-17\15-15-15\14-14-----------------------------------|
G|-----------------------------------------------------------------|
D|-----------------------------------------------------------------|
A|-----------------------------------------------------------------|
E|-----------------------------------------------------------------|

e|-----------------------------------------------------------------|
B|----14h15p14\12-12h14p12-----------------------------------------|
G|-------------------------14/16-14--------------------------------|
D|-----------------------------------------------------------------|
A|-----------------------------------------------------------------|
E|-----------------------------------------------------------------|

e|-------------------------------14h16h17-17-----------------------|
B|----------------------14h15h17-----------------------------------|
G|-------------14h16h18--------------------------------------------|
D|----14h16h18-----------------------------------------------------|
A|-----------------------------------------------------------------|
E|-----------------------------------------------------------------|

e|----17-16-14-----------------------------------------------------|
B|-------------17fb-17fb-17----------------------------------------|
G|-----------------------------------------------------------------|
D|-----------------------------------------------------------------|
A|-----------------------------------------------------------------|
E|-----------------------------------------------------------------|

e|-----------------------------------------------------------------|
B|----15-14-12h14p12------------------17---------------------------|
G|-------------------14/16-16fb(hold)----rb------------------------|
D|-----------------------------------------------------------------|
A|-----------------------------------------------------------------|
E|-----------------------------------------------------------------|

e|-------------------------------------19(dive)--------------------|
B|----------------14h15-17/19-19-19-17-----------------------------|
G|----------14h16--------------------------------------------------|
D|----14h16--------------------------------------------------------|
A|-----------------------------------------------------------------|
E|-----------------------------------------------------------------|            
Submit corrections

↑ Back to top | Tablatures and chords for acoustic guitar and electric guitar, ukulele, drums are parodies/interpretations of the original songs. You may use it for private study, scholarship, research or language learning purposes only