» » »

Orchid - New Jersey Vs Valhalla Chords

Artists:  A B C D E F G H I J K L M N O P Q R S T U V W X Y Z # 

New Jersey Vs Valhalla Chords

(ver. 1) Click to play this song!
Orchid
 Rating:
4.4/5 (14 votes)

 New Jersey Vs Valhalla lessons Tabs too difficult? Try these video lessons and learn fast
 
                
[intro] x4
D#|------------------------------------|
A#|------------------------------------|
F#|------------------------------------|
C#|----------9-------------------------|
G#|----7-7-7---7-7-7-7-----7-----8-8-8-|
D#|--------------------8-8---8-7-------|

[verse] x4
D#|------------------------------------|
A#|------------------------------------|
F#|----9---9---9---9-9-5-5-5-4-4-4-5-5-|
C#|----9---9---9---9-9-5-5-5-4-4-4-5-5-|
G#|----7---7---7---7-7-3-3-3-2-2-2-5-5-|
D#|----0---0---0---0-0-0-0-0-0-0-0-3-3-|

 x2
D#|--------------------------------------------------------------------|
A#|--------------------------------------------------------------------|
F#|----5---5---5---5---5---5---5---------------------------------------|
C#|----5---5---5---5---5---5---5---5---2---2---2---2---2---2---2---2---|
G#|----3---3---3---3---3---3---3---5---2---2---2---2---2---2---2---2---|
D#|----0---0---0---0---0---0---0---3---0---0---0---0---0---0---0---0---|

D#|------------------------------------------------------------------|
A#|------------------------------------------------------------------|
F#|----5---5---5---5---5---5---5-----------------------4/5-5/7-7\5\4-|
C#|----5---5---5---5---5---5---5---5---2---2---2---2-----------------|
G#|----3---3---3---3---3---3---3---5---2---2---2---2---2/3-3/5-5\3\2-|
D#|----0---0---0---0---0---0---0---3---0---0---0---0-----------------|

[verse] x4
D#|------------------------------------|
A#|------------------------------------|
F#|----9---9---9---9-9-5-5-5-4-4-4-5-5-|
C#|----9---9---9---9-9-5-5-5-4-4-4-5-5-|
G#|----7---7---7---7-7-3-3-3-2-2-2-5-5-|
D#|----0---0---0---0-0-0-0-0-0-0-0-3-3-|

 x2
D#|--------------------------------------------------------------------|
A#|--------------------------------------------------------------------|
F#|----5---5---5---5---5---5---5---------------------------------------|
C#|----5---5---5---5---5---5---5---5---2---2---2---2---2---2---2---2---|
G#|----3---3---3---3---3---3---3---5---2---2---2---2---2---2---2---2---|
D#|----0---0---0---0---0---0---0---3---0---0---0---0---0---0---0---0---|

D#|------------------------------------------------------------------|
A#|------------------------------------------------------------------|
F#|----5---5---5---5---5---5---5-----------------------4/5-5/7-7\5\4-|
C#|----5---5---5---5---5---5---5---5---2---2---2---2-----------------|
G#|----3---3---3---3---3---3---3---5---2---2---2---2---2/3-3/5-5\3\2-|
D#|----0---0---0---0---0---0---0---3---0---0---0---0-----------------|

   verse x4 [Fast]
D#|--------------------------------------|
A#|--------------------------------------|
F#|----9--9--9-9-------5--5--4-----12----|
C#|----9--9--9-9-------5--5--4-----12----|
G#|----7--7--7-7-------3--3--2-----10----|
D#|----0--0--0-0-------0--0--0-----0-----|

 x2 [Fast][Slow @ End]
D#|------------------------------------------------------------------|
A#|------------------------------------------------------------------|
F#|----5--5--5-5-------5--5--5---------------------------------------|
C#|----5--5--5-5-------5--5--5-----5---2--2--2-2-------2--2--2---2---|
G#|----3--3--3-3-------3--3--3-----5---2--2--2-2-------2--2--2---2---|
D#|----0--0--0-0-------0--0--0-----3---0--0--0-0-------0--0--0---0---|

D#|------------------------------------------------------------------|
A#|------------------------------------------------------------------|
F#|----5--5--5-5-------5--5--5-------------------------4/5-5/7-7\5\4-|
C#|----5--5--5-5-------5--5--5-----5---2--2--2-2---------------------|
G#|----3--3--3-3-------3--3--3-----5---2--2--2-2-------2/3-3/5-5\3\2-|
D#|----0--0--0-0-------0--0--0-----3---0--0--0-0---------------------|

[bridge] x8
D#|-------------------------------------|
A#|-------------------------------------|
F#|-------------------------------------|
C#|----2---2---2-------2-2-2-2-2-2-5----|
G#|----2---2---2-------2-2-2-2-2-2-5----|
D#|----0---0---0-------0-0-0-0-0-0-3----|

[bridge 2] x3.5
D#|--------------------------------------------------------------------|
A#|--------------------------------------------------------------------|
F#|------------------------------------------------4-----------4-------|
C#|------------------------------------2-2-2-2-2-2---2-2-2-2-2---2-2-2-|
G#|----3-3-3-3-3-3-3-3-3-3-3-3-3-3-2-2---------------------------------|
D#|--------------------------------------------------------------------|

D#|--------------------------------------------------------------------|
A#|--------------------------------------------------------------------|
F#|------------------------------------------------4-----------4-------|
C#|----------------5-5---------5--\(4)-2-2-2-2-2-2---2-2-2-2-2---2-2-2-|
G#|----3-3-3-3-3-3-----3-3-3-3---3\-2----------------------------------|
D#|--------------------------------------------------------------------|

D#|--------------------------------------------------------------------|
A#|--------------------------------------------------------------------|
F#|------------------------------------------------4-----------4-------|
C#|----------------5-5---------5--\(4)-2-2-2-2-2-2---2-2-2-2-2---2-2-2-|
G#|----3-3-3-3-3-3-----3-3-3-3---3\-2----------------------------------|
D#|--------------------------------------------------------------------|
PM  . . . . . .   . . . . .   .  .     . . . . . .   . . . . .   . . .
only mute the A String a little bit while letting the D string ring normally

D#|--------------------------------------|
A#|--------------------------------------|
F#|--------------------------------------|
C#|----------------5-5---------5--\(4)---|
G#|----3-3-3-3-3-3-----3-3-3-3---3\-2----|
D#|--------------------------------------|
PM  . . . . . .   . . . . .   .  .

[outro]
D#|----0-|
A#|----0-|
F#|----9-|
C#|----9-|
G#|----7-|
D#|----0-|            
Submit corrections


        New Jersey Vs Valhalla lessons Hard to play? Try these video lessons and learn fast New Jersey Vs Valhalla lessons
        
↑ Back to top | Tablatures and chords for acoustic guitar and electric guitar, ukulele, drums are parodies/interpretations of the original songs. You may use it for private study, scholarship, research or language learning purposes only