Home » O » Orange Goblin »

Orange Goblin - Various Riffs Tabs

Artists:  A B C D E F G H I J K L M N O P Q R S T U V W X Y Z # 

Various Riffs Tabs

(ver. 1) Click to play this song!
Orange Goblin
Orange Goblin - Various Coup De Grace riffs. 


Key:

x = Palm mute
/= Slide

Getting high on the bad times: 2:44 and again @ 3:07 

|--------------------------------|
|--------------------------------|
|-------------------3-/5--5--5- |
|--3---2--2--2--2---3-/5--5--5--|
|--3---2--2--2--2---1/-3--3--3--|
|--1---0--0--0--0----------------|
          x  x  x 


Red Web: 0:58 and again @ 4:35


|--2--2--2---5--7--8-----2--2--2----7--8--5----2--2--2---5--7--8---8--7--5---8--7--5-
|--2--2--2---5--7--8-----2--2--2----7--8--5----2--2--2---5--7--8---8--7--5---8--7--5-
|--0--0--0---3--5--6-----0--0--0----5--6--3----0--0--0---3--5--6---6--5--3---6--5--3-
   x   x   x           x   x   x              x   x   x
            
Submit corrections

↑ Back to top | Tablatures and chords for acoustic guitar and electric guitar, ukulele, drums are parodies/interpretations of the original songs. You may use it for private study, scholarship, research or language learning purposes only