Home » O » Opeth »

Opeth - Porcelain Heart Bass

Artists:  A B C D E F G H I J K L M N O P Q R S T U V W X Y Z # 

Porcelain Heart Bass

(ver. 1) Click to play this song!
Opeth
This is the first time I've tried to figure out a song. If there are any major mistakes
can contact me on my account ' Leper Affinity '.

Edited on May 10th
 - The transcription software I used to slow down to song altered the pitch. I have made 
and decided to add some more detail.

Main Theme ( With Variation ) Begins at 0:01:50 and 1:46:50
G--------------------------------|
D--------------------------------|
A-------------------5-4----------|
D-0-12/-2-2-6-6/7/6-----2-3/8/1--|

G---------------------------------|
D---------------------------------|
A-------------------5-4-----------|
D-0-12/-2-2-6-6/7/6-----2-3/8/13--|


I wasn't sure which octave the line was in. You need to figure out the rhythm yourself,
should be fairly easy.

Verse ( Very Simple ) Begins at 0:47:50 and 2:29:50

G----------|
D----------|
A----------|
D-0--------|

G-----------|
D-----------|
A-----------|
D-/0--------|


These alternate until the vocals come in.

Second Theme ( Sounds like The Grand Conjuration ) Begins at 3:30:50 and is played again 
6:25:00 ( but with a slightly different feel ). Tab isn't amazing at showing rhythm, so 
you have trouble figuring it out, remember to accent the snare hits.

3:30:50

G-------------------------------------------|
D-------------------------------------------|
A-------------------------------------------|
D-2-0-3--3--3-3-3--3--3--3-3-3--3--3--3-3-3-|

G-------------------------------------------|
D-------------------------------------------|
A-------------------------------------------|
D-5-3-7--7--7-7-7--7--7--7-7-7--7--7--7-7-7-|

G-------------------------------------------|
D-------------------------------------------|
A-------------------------------------------|
D-8-7-2--2--2-2-2--2--2--2-2-2--2--2--2-2-2-|

G-------------------------------------------|
D-------------------------------------------|
A-------------------------------------------|
D-3-2-0--0--0-0-0--0--0--0-0-0--0--0--0-0-0-|


6:25:00
it begins

G---------------------|
D---------------------|
A---------------------|
D-2-0-3-----5-3-7-----|


G-------------------------------------------|
D-------------------------------------------|
A-------------------------------------------|
D-8-7-2--2--2-2-2--2--2--2-2-2--2--2--2-2-2-|

G-------------------------------------------|
D-------------------------------------------|
A-------------------------------------------|
D-3-2-0--0--0-0-0--0--0--0-0-0--0--0--0-0-0-|

And then it transitions into an almost identical riff.

G-----------------------------------------------|
D-----------------------------------------------|
A-----------------------------------------------|
D-222-000-3--3--3-3-3--3--3--3-3-3--3--3--3-3-3-|

G-----------------------------------------------|
D-----------------------------------------------|
A-----------------------------------------------|
D-555-333-7--7--7-7-7--7--7--7-7-7--7--7--7-7-7-|

G-----------------------------------------------|
D-----------------------------------------------|
A-----------------------------------------------|
D-888-777-2--2--2-2-2--2--2--2-2-2--2--2--2-2-2-|

G-----------------------------------------------|
D-----------------------------------------------|
A-----------------------------------------------|
D-333-222-0--0--0-0-0--0--0--0-0-0--0--0--0-0-0-|


Leave a comment or send me a PM for feedback.

:D
            
Submit corrections

↑ Back to top | Tablatures and chords for acoustic guitar and electric guitar, ukulele, drums are parodies/interpretations of the original songs. You may use it for private study, scholarship, research or language learning purposes only