Home » O » Opeth »

Opeth - Persephone Tabs

Artists:  A B C D E F G H I J K L M N O P Q R S T U V W X Y Z # 

Persephone Tabs

(ver. 1) Click to play this song!
Opeth
[Verse]x2

[gtr.1]
e|----------------------------------------------------------------------------------|
B|----------------------------------------------------------------------------------|
G|-9-7-9~--------7-9-10-9h10p9-7-5--4h5p4~-------------5p4-5--7-7/9-4---------------|
D|----------------------------------------------------------------------6---7~------|
A|----------------------------------------------------------------------------------|
E|----------------------------------------------------------------------------------|

[gtr.3]
 |Am          |Am          |G           |G           |F           |E           |Am
e|------5-----|------5-----|------3-----|------3-----|------1-----|------0-----|------5------|
B|----5---5---|----5---5---|----3---3---|----3---3---|----1---1---|----0---0---|----5---5----|
G|--5-------5-|--5-------5-|--4-------4-|--4-------4-|--2-------2-|--1-------1-|--5-------5--|
D|------------|------------|------------|------------|------------|------------|-------------|
A|------------|------------|------------|------------|------------|------------|-------------|
E|5-----------|5-----------|3-----------|3-----------|1-----------|0-----------|5-----------5|

[Chorus]x1


[gtr. 1]
e|------------------------------------------------------------------5--------------------|
B|----------------8---8-10---------------------------------------------------------------|
G|-2-4-5-5/9~-------9------9-7------5p4-5p4-------4-5-7-7/9-4-----------4h5p4------------|
D|------------------------------------------5---7-----------------------------7-5-5/7----|
A|---------------------------------------------------------------------------------------|
E|---------------------------------------------------------------------------------------|

[gtr.3]
 |C           |C           |G           |G           |F           |E           |Am
e|------8-----|------8-----|------3-----|------3-----|------1-----|------0-----|------5------|
B|----8---8---|----8---8---|----3---3---|----3---3---|----1---1---|------0-----|----5---5----|
G|--9-------9-|--9-------9-|--4-------4-|--4-------4-|--2-------2-|----1-1-----|--5-------5--|
D|------------|------------|------------|------------|------------|--2---------|-------------|
A|------------|------------|------------|------------|------------|------------|-------------|
E|8-----------|8-----------|3-----------|3-----------|1-----------|0-----------|5-----------5|

[Verse]x2

[gtr.1]
e|----------------------------------------------------------------------------------|
B|----------------------------------------------------------------------------------|
G|-9-7-9~--------7-9-10-9h10p9-7-5--4h5p4~-------------5p4-5--7-7/9-4---------------|
D|----------------------------------------------------------------------6---7~------|
A|----------------------------------------------------------------------------------|
E|----------------------------------------------------------------------------------|

[gtr.2]
e|-12-10-12~-----10-12-13-12h13p12-10-9--7h8p7~--------8p7-8--10-10/12-7------------|
B|-------------------------------------------------------------------------9--10~---|
G|----------------------------------------------------------------------------------|
D|----------------------------------------------------------------------------------|
A|----------------------------------------------------------------------------------|
E|----------------------------------------------------------------------------------|

[gtr.3]
 |Am          |Am          |G           |G           |F           |E           |Am
e|------5-----|------5-----|------3-----|------3-----|------1-----|------0-----|------5------|
B|----5---5---|----5---5---|----3---3---|----3---3---|----1---1---|----0---0---|----5---5----|
G|--5-------5-|--5-------5-|--4-------4-|--4-------4-|--2-------2-|--1-------1-|--5-------5--|
D|------------|------------|------------|------------|------------|------------|-------------|
A|------------|------------|------------|------------|------------|------------|-------------|
E|5-----------|5-----------|3-----------|3-----------|1-----------|0-----------|5-----------5|


[Chorus]x1

[gtr. 1]
e|------------------------------------------------------------------5--------------------|
B|----------------8---8-10---------------------------------------------------------------|
G|-2-4-5-5/9~-------9------9-7------5p4-5p4-------4-5-7-7/9-4-----------4h5p4------------|
D|------------------------------------------5---7-----------------------------7-5-5/7----|
A|---------------------------------------------------------------------------------------|
E|---------------------------------------------------------------------------------------|

[gtr.2]
e|-5-7-9-9/12~--15-12-15-17-12-10---8p7-8p7--------7-8-10-10/12-7---5--------------------|
B|------------------------------------------8---10---------------------------------------|
G|---------------------------------------------------------------------------------------|
D|---------------------------------------------------------------------------------------|
A|---------------------------------------------------------------------------------------|
E|---------------------------------------------------------------------------------------|

[gtr.3]
 |C           |C           |G           |G           |F           |E           |Am
e|------8-----|------8-----|------3-----|------3-----|------1-----|------0-----|------5------|
B|----8---8---|----8---8---|----3---3---|----3---3---|----1---1---|------0-----|----5---5----|
G|--9-------9-|--9-------9-|--4-------4-|--4-------4-|--2-------2-|----1-1-----|--5-------5--|
D|------------|------------|------------|------------|------------|--2---------|-------------|
A|------------|------------|------------|------------|------------|------------|-------------|
E|8-----------|8-----------|3-----------|3-----------|1-----------|0-----------|5-----------5|            
Submit corrections

↑ Back to top | Tablatures and chords for acoustic guitar and electric guitar, ukulele, drums are parodies/interpretations of the original songs. You may use it for private study, scholarship, research or language learning purposes only