» » »

Opeth - Moon Above Sun Below Tabs

Artists:  A B C D E F G H I J K L M N O P Q R S T U V W X Y Z # 

Moon Above Sun Below Tabs

(ver. 1) Click to play this song!
Opeth
 Rating:
4/5 (4 votes)

 Moon Above Sun Below  lessons Tabs too difficult? Try these video lessons and learn fast
 
                Tuning: STANDARD eadgbe


e|---------------------------------------------------------------------------|
B|---------------------------------------------------------------------------|
G|---------------------------------------------------------------------------|
D|---------------------------------------------------------------------------|
A|---------------------------------------------------------------------------|
E|---------------------------------------------------------------------------|

e|---------------------------------------------------------------------------------------------|
B|---------------------------------------------------------------------------------------------|
G|---------------------------------------------------------------------------|            x 3--|
D|------------------------4-4h5-6--------------------------------------------------------------|
A|--6-6-6-6-6-7\------6h7-------------------------/7-------------------------------------------|
E|------------0--0------------------5h6p5---3p0------------------------------------------------|

e|-----------------------------------------------------------------|
B|-----------------------------------------------------------------|
G|-----------------------------------------------------------------|
D|-----------------------------------------------------------------|
A|-6-6-6-6-6-7-6h7p6-----------------------------------------------|
E|--------------------8-7--4-5-7-8-7---5h7p5---4h5-5p4-1p0---------|

e|--------------------------------------------------------------------------------------------|
B|--------------------------------------------------------------------------------------------|
G|---------------------------------------------------------------------------|           x 2--|
D|--------------------------------------------------------------------------------------------|
A|--------------------------------------------------------------------------------------------|
E|--12v-0---0-12p0-0-0---0-12v-0---0-12-13v---0-0-12v-0---0-12p0-0-0--0-12v-0-3h5-6-----------|

Same riff again once after keyboard bit

e|----------------------------|
B|----------------------------|
G|----------------------------|
D|--9--8--5-2-----------------|
A|--7--6--3-0---6-----5---/7--|
E|--------------4--0--3---/5--|

e|------------------------------------------------------|
B|--8h10----8-----8---------------8h10---8-----8--------|
G|------------9-----7-5--------------------9-----7-5-4--|
D|----------------------7-------------------------------|
A|------------------------------------------------------|
E|------------------------------------------------------|

e|-----------------------------------------------------------|
B|--8h10----8-----8---------------8h10---8h10p8-----8--------|
G|------------9-----7-5-------------------------9-----7-5-4--|
D|----------------------7------------------------------------|
A|-----------------------------------------------------------|
E|-----------------------------------------------------------|

e|--------------------------------------------------------------------------------------|
B|--------------------------------------------------------------------------------------|
G|------5--7b8r7p5---5------------------------------------------------------------------|
D|--5/7------------7---7-5--------------------------------------------------------------|
A|-------------------------5-3-5b6r5p3--------------------------------------------------|
E|-------------------------------------5-3-5--------------------------------------------|

e|-----------------------------------------------------------------------------|
B|--------10h12--------8-------------------------------------------------------|
G|-----------------------7/9\5-------------------------------------------------|
D|-----------------------------------------------------------------------------|
A|-----------------------------------------------------------------------------|
E|-----------------------------------------------------------------------------|

e|---------------------------------------------------------------------------------------|
B|---------------------------------------------------------------------------------------|
G|---------------------------------------------------------------------------------------|
D|----------9-9h10-9--------9-10-10/12--12/14--------------------------------------------|
A|---/12-12----------12--12--------------------------------------------------------------|
E|---------------------------------------------------------------------------------------|

e|--------------------------------------------------------------------------------------|
B|--------------------------------------------------------------------------------------|
G|--------------------------------------------------------------------------------------|
D|----------9-9h10-9--------9-10-10/12---------\9---------------------------------------|
A|---/12-12----------12--12-------------------------------------------------------------|
E|--------------------------------------------------------------------------------------|

e|-----------------------------------------------|
B|---------12-12h13-12--------12-13-13/15-15/17--|
G|--/14-14-------------14--14--------------------|
D|-----------------------------------------------|
A|-----------------------------------------------|
E|-----------------------------------------------|

e|------------------------------------------------|
B|---------12-12h13-12--------12-13-13/15----\12--|
G|--/14-14-------------14--14---------------------|
D|------------------------------------------------|
A|------------------------------------------------|
E|------------------------------------------------|            
Submit corrections


        Moon Above Sun Below  lessons Hard to play? Try these video lessons and learn fast Moon Above Sun Below  lessons
        
↑ Back to top | Tablatures and chords for acoustic guitar and electric guitar, ukulele, drums are parodies/interpretations of the original songs. You may use it for private study, scholarship, research or language learning purposes only