» » »

Opeth - Hope Leaves Live Tabs

Artists:  A B C D E F G H I J K L M N O P Q R S T U V W X Y Z # 

Hope Leaves Live Tabs

(ver. 1) Click to play this song!
Opeth
 Rating:
4.3/5 (9 votes)

 Hope Leaves Live  lessons Tabs too difficult? Try these video lessons and learn fast
 
                RIFF 1


|---------------0-------------------------------0---------------------------|
|---------0-------0---0-------------------0-------0---0---------------------|
|-----5-----5-------5---5-------------5-----5-------5---5-----5-------------|
|---5---5-----5-------------5---5---5---5-----5-------------5---5-----------|
|---------------------------------------------------------------------------|
|-5-----------------------3---0---1-----------------------3-----------------|


RIFF 2


|-----------------0-------0-----------------------0-------0---------|
|---------0---------0-------0-------------0---------0-------0-------|
|-----5-----5---------5-------5--------5----5---------5-------5-----|
|---4---4-----4-----------------3----4---4----4-----------------3---|
|-------------------------------------------------------------------|
|-2-------------1-------1---------2-------------1-------1-----------|


RIFF 2 (Different ending)


|----------------------------------|
|---------0------------------------|
|-----5-----5---------0-------0----|
|---4---4-----4-----3---3---5---5--|
|----------------------------------|
|-2--------------1--------3--------|


RIFF 3


|---------------------------------------------------------------------|
|---------------------------------------------------------------------|
|-----2---------0-----0-----0-----------2-------0-----0-----0---------|
|---2---2-----0-----0-----0-----------2---2---0-----0-----0-----0-----|
|-0--------/5-----2-----3-----------0-------2-----3-----5-----7---9---|
|-----------------------------3--0------------------------------------|


|---------------------------------------------------------------------|
|---------------------------------------------------------------------|
|-----2---------0-----0-----0----------2---------------------7--------|
|---2---2-----0-----0-----0----------2---------3-----5-----8---8------|
|-0--------/5-----2-----3----------0---------3-----5-----8-------8----|
|-----------------------------3--0---------1-----3-----6--------------|


Lead I (Mikael):


|---------------------------------------------------------------------|
|-10--10-12-13-13/15---13p12------------------------------------------|
|----------------------------14--12-14p12-----------------------------|
|------------------------------------------14/12--10--12--12/14-------|
|---------------------------------------------------------------------|
|---------------------------------------------------------------------|


Acoustic interlude (Mikael):


|-0---0---0-----------------------------------------------------------|
|-0---0---0-----------------------------------------------------------|
|-9---9---8----2------------------------------4------------2--4/5--2--|
|-10--10--9----2-------0--0-----3-----------5------------2------------|
|-0---0---0----0--(0)--2--2-----3---------5------------2--------------|
|----------------------------0--1----0--3---------0--4----------------|

Lead II (Mikael):

|---------------------------------------------------------------------|
|---------------------------0-----------------------------------------|
|------------4h5-4--2/4p0---0-----------------------------------------|
|-3h5p3/2-------------------0h2---------------------------------------|
|---------------------------------------------------------------------|
|---------------------------------------------------------------------|
            
Submit corrections


        Hope Leaves Live  lessons Hard to play? Try these video lessons and learn fast Hope Leaves Live  lessons
        
↑ Back to top | Tablatures and chords for acoustic guitar and electric guitar, ukulele, drums are parodies/interpretations of the original songs. You may use it for private study, scholarship, research or language learning purposes only