» » »

Opeth - Heart In Hand Tabs

Artists:  A B C D E F G H I J K L M N O P Q R S T U V W X Y Z # 

Heart In Hand Tabs

(ver. 1) Click to play this song!
Opeth
 Rating:
4.3/5 (10 votes)

 Heart In Hand lessons Tabs too difficult? Try these video lessons and learn fast
 
                [Intro]
   PM--------------------------|
e|------------------------------------------------------------------------------------------------------|
B|------------------------------------------------------------------------------------------------------|
G|------------------------------------------------------------------------------------------------------|
D|------------------------------------------------------------------------------------------------------|
A|--2--2-2--2--2-2--2--2--2-2--2------------------------------------------------------------------------|
E|--0--0-0--0--0-0--0--0--0-0--0------------------------------------------------------------------------|


e|------------------------------------------------------------------------------------------------------|
B|------------------------------------------------------------------------------------------------------|
G|--9/11/12--6--10/9/6--13--16--11----9/11/12---6---10/9/6---13---16---12---13---19---21---18-----------|
D|------------------------------------------------------------------------------------------------9-8---|
A|--7/9-/10--4--8-/7/4--11--14--10----7/9-/10---4---8-/7/4---11---14---10---11---17---19---16-----8-7---|
E|------------------------------------------------------------------------------------------------7-6---|

                                                                                                 PM-|
e|------------------------------------------------------------------------------------------------------|
B|------------------------------------------------------------------------------------------------------|
G|--9/11/12--6--10/9/6--13--16--11----9/11/12---6---10/9/6---13---16---12---13---19---21---18-----------|
D|----------------------------------------------------------------------------------------------9-------|
A|--7/9-/10--4--8-/7/4--11--14--10----7/9-/10---4---8-/7/4---11---14---10---11---17---19---16---8-------|
E|----------------------------------------------------------------------------------------------7-0-0-0-|

   PM-----------|
e|------------------------------------------------------------------------------------------------------|
B|------------------------------------------------------------------------------------------------------|
G|------------------------------------------------------------------------------------------------------|
D|---------8------8-9-11-12--8-9-11-8-------------------------------------------------------------------|
A|--7-9-10---9-10---------------------------------------------------------------------------------------|
E|------------------------------------------------------------------------------------------------------|


[Verse]
                         PM----------------------------------------------|
e|------------------------------------------------------------------------------------------------------|
B|------------------------------------------------------------------------------------------------------|
G|--9-----7--5------------------------------------------------------------------------------------------|
D|--9-----7--5-----5--10--------------------------------------------------------------------------------| x4
A|--7-----5--3-----5--10--2--2-2-2--2-2--2-2--2--2-2-2--2-2-2--2-2--2-2--2------------------------------|
E|-----0--------0--3--8---0--0-0-0--0-0--0-0--0--0-0-0--0-0-0--0-0--0-0--0------------------------------|


[Bridge] 
                                                            .   .  .
e|--4------2--2-----5------5--5---4------2--2-----5------5--5---5--5--5------5-5------------------------|
B|--4------2--2-----5------5--5---4------2--2-----5------5--5---5--5--5------5-5------------------------|
G|--4------2--2-----5------5--5---4------4--2-----5------5--5---5--5--5------5-5------------------------|
D|--6------4--4-----7------7--7---6------4--4-----7------7--7---7--7--7------7-7------------------------| x1
A|--6------4--4-----7------7--7---6------4--4-----7------6--6---6--6--6------6-6------------------------|
E|--4--x-x-2--2-x-x-5--x-x-5--5---4--x-x-2--2-x-x-5--x-x-5--5---5--5--5--x-x-5-5------------------------|


[Verse]
                         PM----------------------------------------------|
e|------------------------------------------------------------------------------------------------------|
B|------------------------------------------------------------------------------------------------------|
G|--9-----7--5------------------------------------------------------------------------------------------|
D|--9-----7--5-----5--10--------------------------------------------------------------------------------| x4
A|--7-----5--3-----5--10--2--2-2-2--2-2--2-2--2--2-2-2--2-2-2--2-2--2-2--2------------------------------|
E|-----0--------0--3--8---0--0-0-0--0-0--0-0--0--0-0-0--0-0-0--0-0--0-0--0------------------------------|


[Bridge] 
                                                            .   .  .
e|--4------2--2-----5------5--5---4------2--2-----5------5--5---5--5--5------5-5------------------------|
B|--4------2--2-----5------5--5---4------2--2-----5------5--5---5--5--5------5-5------------------------|
G|--4------2--2-----5------5--5---4------4--2-----5------5--5---5--5--5------5-5------------------------|
D|--6------4--4-----7------7--7---6------4--4-----7------7--7---7--7--7------7-7------------------------| x1
A|--6------4--4-----7------7--7---6------4--4-----7------6--6---6--6--6------6-6------------------------|
E|--4--x-x-2--2-x-x-5--x-x-5--5---4--x-x-2--2-x-x-5--x-x-5--5---5--5--5--x-x-5-5------------------------|


[Pre-Chorus]
              PM-|                 PM---|       1.             2.
e|----------------------------------------------|--------------|----------------------------------------|
B|----------------------------------------------|--------------|----------------------------------------|
G|--10/9/10/9-----13/10/9/10/9/7/9--------------|--------------|----------------------------------------| 
D|----------------------------------------------|x4------------|x4--------------6-9---------------------| x4
A|--8-/7/8-/7-----11/8-/7/8-/7/5/7----5-7-------|--------5--8--|--------5--8----------------------------|
E|-------------0-0------------------7-----------|--4--7--------|--4--7----------------------------------|


[Chorus]

e|--0---0----------0---0---------0---0---------0--------------------------------------------------------|
B|--0-----0--------5-----5-------3-----3-------2--------------------------------------------------------|
G|--5-------5------7-------7-----2-------2-----2--------------------------------------------------------|
D|--7---------7----6---------6---3---------3---2----5------8--------------------------------------------| x2
A|--7--------------0-------------0-------------0----5------8--------------------------------------------|
E|--------------------------------------------------3--x-x-6--------------------------------------------|


[Solo]
                         PM----------------------------------------------|
e|------------------------------------------------------------------------------------------------------|
B|------------------------------------------------------------------------------------------------------|
G|--9-----7--5------------------------------------------------------------------------------------------|
D|--9-----7--5-----5--10--------------------------------------------------------------------------------| x4
A|--7-----5--3-----5--10--2--2-2-2--2-2--2-2--2--2-2-2--2-2-2--2-2--2-2--2------------------------------|
E|-----0--------0--3--8---0--0-0-0--0-0--0-0--0--0-0-0--0-0-0--0-0--0-0--0------------------------------|


[Verse]
                         PM----------------------------------------------|
e|------------------------------------------------------------------------------------------------------|
B|------------------------------------------------------------------------------------------------------|
G|--9-----7--5------------------------------------------------------------------------------------------|
D|--9-----7--5-----5--10--------------------------------------------------------------------------------| x4
A|--7-----5--3-----5--10--2--2-2-2--2-2--2-2--2--2-2-2--2-2-2--2-2--2-2--2------------------------------|
E|-----0--------0--3--8---0--0-0-0--0-0--0-0--0--0-0-0--0-0-0--0-0--0-0--0------------------------------|


[Bridge] 
                                                            .   .  .
e|--4------2--2-----5------5--5---4------2--2-----5------5--5---5--5--5------5-5------------------------|
B|--4------2--2-----5------5--5---4------2--2-----5------5--5---5--5--5------5-5------------------------|
G|--4------2--2-----5------5--5---4------4--2-----5------5--5---5--5--5------5-5------------------------|
D|--6------4--4-----7------7--7---6------4--4-----7------7--7---7--7--7------7-7------------------------| x1
A|--6------4--4-----7------7--7---6------4--4-----7------6--6---6--6--6------6-6------------------------|
E|--4--x-x-2--2-x-x-5--x-x-5--5---4--x-x-2--2-x-x-5--x-x-5--5---5--5--5--x-x-5-5------------------------|


[Chorus]

e|--0---0----------0---0---------0---0---------0--------------------------------------------------------|
B|--0-----0--------5-----5-------3-----3-------2--------------------------------------------------------|
G|--5-------5------7-------7-----2-------2-----2--------------------------------------------------------|
D|--7---------7----6---------6---3---------3---2----5------8--------------------------------------------| x2
A|--7--------------0-------------0-------------0----5------8--------------------------------------------|
E|--------------------------------------------------3--x-x-6--------------------------------------------|

[Electric Outro]
e|-----------------|-----0------------------------------------------------------------------------------|
B|-----------------|-----0------------------------------------------------------------------------------|
G|-----------------|-----8------------------------------------------------------------------------------|
D|--5--------------|x30--7------------------------------------------------------------------------------|
A|----4---5--------|-----6------------------------------------------------------------------------------|
E|------6---3-6-5--|------------------------------------------------------------------------------------|

[Acoustic Outro]
e|-------------------0-----------------5-----|------------------0---------------------------------------|
B|-----------9---------9-----------------7---|----------9---------9---------------7--7------------------|
G|-------8------8--------8---------6-------6-|------8------8--------8---------6---------6---------------|
D|-----9---9-------9-------9-----7---7-------|----9---9-------9-------9-----7---7-----------------------| x2.5
A|--7-------------------------5--------------|-7-------------------------5------------------------------|
E|-------------------------------------------|----------------------------------------------------------|


e|-------------------0-----------5----------------------------------------------------------------------|
B|-----------9-------9-------------7--------------------------------------------------------------------|
G|-------8------8------------6-------6------------------------------------------------------------------|
D|-----9---9-------9-------7---7------------------------------------------------------------------------| x15
A|--7-------------------5-------------------------------------------------------------------------------|
E|------------------------------------------------------------------------------------------------------|

            
Submit corrections


        Heart In Hand lessons Hard to play? Try these video lessons and learn fast Heart In Hand lessons
        
↑ Back to top | Tablatures and chords for acoustic guitar and electric guitar, ukulele, drums are parodies/interpretations of the original songs. You may use it for private study, scholarship, research or language learning purposes only