» » »

Opeth - Folklore Tabs

Artists:  A B C D E F G H I J K L M N O P Q R S T U V W X Y Z # 

Folklore Tabs

(ver. 1) Click to play this song!
Opeth
 Rating:
4/5 (4 votes)

 Folklore lessons Tabs too difficult? Try these video lessons and learn fast
 
                (Intro)
-------------------------------------------------------------------------------
                             FOLKLORE - Opeth
-------------------------------------------------------------------------------

Tuning: Standard (EADGBe)


e|---------------------------------------------------------------|
B|-0-1-3-4p3/4h6/8-8~--------------------------------------------|
G|---------------------------------------------------------------|
D|---------------------------------------------------------------|
A|---------------------------------------------------------------|
E|---------------------------------------------------------------|

e|---------------------------------------------------------------|
B|-3h4p3-----3---------------------------------------------------|
G|-------5-4---4-------------------------------------------------|
D|---------------5-3-1h3p1p0-----------------3-5---0-----1--1~---|
A|---------------------------3-----2-3--5-6--------------3--3~---|
E|---------------------------------------------------------------|

e|---------------------------------------------------------------|
B|---------------------------------------------------------------|
G|---------------------------------------------------------------|
D|----------------------------------------(3)---------3-5-5h6p5--|
A|-(0)(2)(3)(5)---(2)(3)(5)(6)---(3)(5)(6)-------5-6-------------|
E|---------------------------------------------------------------|

e|---------------------------------------------------------------|
B|---------------------------------------------------------------|
G|-----4-5-7--5p4------------------------------------------------|
D|-/5-------------5----------------------------------------------|
A|-------------------6--5--3----------------2-3---5-6---2--3--3~~|
E|----------------------------4~~-----0--3-----------------------|

e|---------------------------------------------------------------|
B|-0-1-3-4p3-4h6-4h6p4p3-4p3/1---0-1-3---4p3/4h6/8-8~~~~---------|
G|---------------------------------------------------------------|
D|---------------------------------------------------------------|
A|---------------------------------------------------------------|
E|---------------------------------------------------------------|

e|---------------------------------------------------------------|
B|-3h4p3-----3---------------------------------------------------|
G|-------5-4---4-------------------------------------------------|
D|---------------5-3-1h3p1p0-----------------3-5---0-----1--1~---|
A|---------------------------3-----2-3--5-6--------------3--3~---|
E|---------------------------------------------------------------|

e|---------------------------------------------------------------|
B|---------------------------------------------------------------|
G|---------------------------------------------------------------|
D|---------------------------3-------3-5-5h6p5-------------------|
A|-0-2-3-5---2-3-5-6---3-5-6-----5-6-----------------------------|
E|---------------------------------------------------------------|

e|---------------------------------------------------------------|
B|---------------------------------------------------------------|
G|-----4-5-7--5p4------------------------------------------------|
D|-/5-------------5----------------------------------------------|
A|-------------------6--5--3----------------2-3---5-6---2--3--3~~|
E|----------------------------4~~-----0--3-----------------------|


In the album, the first string (e) is tuned half-step lower (d#), so that the following 
riff can be played like this:
d#|-----------0~~~~~~~~~~~~--------------------------------------|
 B|-----------4h5p4----------------------------------------------|
 G|-------5---5------5-4-5---------------------------------------|
 D|-----5-----5-~~~~~~~~~~~~-------------------------------------|
 A|---3----------------------------------------------------------|
 E|--------------------------------------------------------------|

d#|--------------------------------------------------------------|
 B|--------------------------------------------------------------|
 G|-3h5---3------------------------------------------------------|
 A|-----5---3h5---3----------------------------------------------|
 D|-------------6-------6--------6------3------------------------|
 E|------------------6-----3---6----6----------------------------|

Alternatively, this ascending riff can be played like this:
d#|--------------------------------------------------------------|
 B|--------------------------------------------------------------|
 G|-3h5---3------------------------------------------------------|
 A|-----5---3h5-1-3----1----------1------------------------------|
 D|------------------1---------1----1----3-----------------------|
 E|------------------------3-------------------------------------|

Lead
e|---------------------------------------------------------------|
B|--8------------------------------------------------------------|
G|-----5--8--10--8/7---5/4--4h5~~~-------------------------------|
D|---------------------------------------------------------------|
A|---------------------------------------------------------------|
E|---------------------------------------------------------------|

e|---------------------------------------------------------------|
B|--8-------------/13-11-----------------------------------------|
G|-----5--8--10-----------10h11h12~~~~---------------------------|
D|---------------------------------------------------------------|
A|---------------------------------------------------------------|
E|---------------------------------------------------------------|

************************************

| /   slide up
| \   slide down
| h   hammer-on
| p   pull-off
| ~   vibrato
| +   harmonic
| x   Mute note
| b   Bend
| pb  Pre-bend
| br  Bend release
| pbr Pre-bend release
| brb Bend release bend

************************************
            
Submit corrections


        Folklore lessons Hard to play? Try these video lessons and learn fast Folklore lessons
        
↑ Back to top | Tablatures and chords for acoustic guitar and electric guitar, ukulele, drums are parodies/interpretations of the original songs. You may use it for private study, scholarship, research or language learning purposes only