» » »

One Way System - Your Ready Now Bass

Artists:  A B C D E F G H I J K L M N O P Q R S T U V W X Y Z # 

Your Ready Now Bass

(ver. 1) Click to play this song!
One Way System
 Rating:
4/5 (4 votes)
    Your Ready Now lessons Tabs too difficult? Try these video lessons and learn fast
                Verse                          x12
G---------------------------------|
D---------------------------------|
A-7---------------0---------------|
E---------------------------------|

Verse Continued                x12
G---------------------------------|
D---------------------------------|
A-7-7-7-7-7-7-7-7-0-0-0-0-0-0-0-0-|
E---------------------------------|

Interlude  x4
G------------|
D------------|
A-7-7--5-----|
E--------5-5-|

Verse                           x8
G---------------------------------|
D---------------------------------|
A-7---------------0---------------|
E---------------------------------|

Interlude  x4
G------------|
D------------|
A-7-7--5-----|
E--------5-5-|

Verse                           x8
G---------------------------------|
D---------------------------------|
A-7---------------0---------------|
E---------------------------------|

Interlude  x4
G------------|
D------------|
A-7-7--5-----|
E--------5-5-|
            
Submit corrections

↑ Back to top | Tablatures and chords for acoustic guitar and electric guitar, ukulele, drums are parodies/interpretations of the original songs. You may use it for private study, scholarship, research or language learning purposes only