» » »

One Way System - Breaking In Tabs

Artists:  A B C D E F G H I J K L M N O P Q R S T U V W X Y Z # 

Breaking In Tabs

(ver. 1) Click to play this song!
One Way System
 Rating:
4/5 (4 votes)
                Intro/Verse                     x6
E---------------------------------|
B---------------------------------|
G-9-9-9-9-9-9-9-9-5-5-5-5-4-4-4-4-|
D-9-9-9-9-9-9-9-9-5-5-5-5-4-4-4-4-|
A-7-7-7-7-7-7-7-7-3-3-3-3-2-2-2-2-|
E---------------------------------|

Chorus                                                          x2
E-----------------------------------------------------------------|
B-----------------------------------------------------------------|
G-2-2-2-2-2-2-2-2-9-9-9-9-9-9-9-9-5-5-5-5-5-5-5-5-7-7-7-7-7-7-7-7-|
D-2-2-2-2-2-2-2-2-9-9-9-9-9-9-9-9-5-5-5-5-5-5-5-5-7-7-7-7-7-7-7-7-|
A-0-0-0-0-0-0-0-0-7-7-7-7-7-7-7-7-3-3-3-3-3-3-3-3-5-5-5-5-5-5-5-5-|
E-----------------------------------------------------------------|

Verse 2                         x6
E---------------------------------|
B---------------------------------|
G-9-9-9-9-9-9-9-9-5-5-5-5-4-4-4-4-|
D-9-9-9-9-9-9-9-9-5-5-5-5-4-4-4-4-|
A-7-7-7-7-7-7-7-7-3-3-3-3-2-2-2-2-|
E---------------------------------|

Chorus                                                          x2
E-----------------------------------------------------------------|
B-----------------------------------------------------------------|
G-2-2-2-2-2-2-2-2-9-9-9-9-9-9-9-9-5-5-5-5-5-5-5-5-7-7-7-7-7-7-7-7-|
D-2-2-2-2-2-2-2-2-9-9-9-9-9-9-9-9-5-5-5-5-5-5-5-5-7-7-7-7-7-7-7-7-|
A-0-0-0-0-0-0-0-0-7-7-7-7-7-7-7-7-3-3-3-3-3-3-3-3-5-5-5-5-5-5-5-5-|
E-----------------------------------------------------------------|

Solo                                                              x9
E---------------------------------|---------------------------------|
B---------------------------------|---------------------------------|
G-9-------------------------------|-9-9-9-9-9-9-9-9-5-5-5-5-4-4-4-4-|
D-9-------------------------------|-9-9-9-9-9-9-9-9-5-5-5-5-4-4-4-4-|
A-7-------------------------------|-7-7-7-7-7-7-7-7-3-3-3-3-2-2-2-2-|
E---------------------------------|---------------------------------|

Chorus                                                          x2
E-----------------------------------------------------------------|
B-----------------------------------------------------------------|
G-2-2-2-2-2-2-2-2-9-9-9-9-9-9-9-9-5-5-5-5-5-5-5-5-7-7-7-7-7-7-7-7-|
D-2-2-2-2-2-2-2-2-9-9-9-9-9-9-9-9-5-5-5-5-5-5-5-5-7-7-7-7-7-7-7-7-|
A-0-0-0-0-0-0-0-0-7-7-7-7-7-7-7-7-3-3-3-3-3-3-3-3-5-5-5-5-5-5-5-5-|
E-----------------------------------------------------------------|

Outro
E---------------------|
B---------------------|
G-2----9----5----7----|
D-2----9----5----7----|
A-0----7----3----5----|
E---------------------|
            
Submit corrections

↑ Back to top | Tablatures and chords for acoustic guitar and electric guitar, ukulele, drums are parodies/interpretations of the original songs. You may use it for private study, scholarship, research or language learning purposes only