Home » O » One Piece »

One Piece - Binks Sake Tabs

Artists:  A B C D E F G H I J K L M N O P Q R S T U V W X Y Z # 

Binks Sake Tabs

(ver. 3) Click to play this song!
One Piece
Tuning: Standart

Part A   v ^ v                              v ^ v
e|----0--3-3-3-------5--3--0--3-----|----0--3-3-3-------5--3--0--------------|
B|----1--1-1-1-------3-----1--------|----1--1-1-1-------3-----1----1---------|
G|----0--0-0-0-------2-----0--------|----0--0-0-0-------2-----0--------------|
D|-------------------0--------------|-------------------0--------------------|
A|----3--------------------3--------|----3--------------------3--------------|
E|--------------3------------------3|---------------3-------------------3----|
         v ^ v                              v ^ v
e|----0--3-3-3-------5--3--0--3-----|----0--3-3-3-------5--3--0--------------|
B|----1--1-1-1-------3-----1--------|----1--1-1-1-------3-----1----1---------|
G|----0--0-0-0-------2-----0--------|----0--0-0-0-------2-----0--------------|
D|-------------------0--------------|-------------------0--------------------|
A|----3--------------------3--------|----3--------------------3--------------|
E|--------------3------------------3|---------------3-------------------3----|
                      (1fret Barré)                          
Part B                    V  V
e|----3----0------------------------|----3----0------------------------------|
B|----1---------3----1-------1------|----1---------3----1-------1------------|
G|----0---------0---------2-----0---|----0---------0---------2-----0---------|
D|------------------------3-----0---|------------------------3-----0---------|
A|----3-----------------------------|----3-----------------------------------|
E|--------------3---------1-----3---|--------------3---------1-----3---------|
                                          v      
e|-----------------------------1----|--0--0----------------------------------|
B|-------1-----------0----1---------|--1--1---3--1--3------------------------|
G|----3-----0--0--3-------0---------|--0--0---0--0--2------------------------|
D|----2-----0-----2-------2---------|---------0--2--0---------0--------------|
A|------------------------3---------|--3-------------------------------------|
E|----1-----3-----1-----------------|---------3-----2-----3-------3----------|
                      (1fret Barré)                          
                          |  |
e|----3----0------------------------|----3----0------------------------------|
B|----1---------3----1-------1------|----1---------3----1-------1------------|
G|----0---------0---------2-----0---|----0---------0---------2-----0---------|
D|------------------------3-----0---|------------------------3-----0---------|
A|----3-----------------------------|----3-----------------------------------|
E|--------------3---------1-----3---|--------------3---------1-----3---------|

                                          v     
e|-----------------------------1----|--0--0----------------------------------|
B|-------1-----------0----1---------|--1--1---3--0--1------------------------|
G|----3-----0--0--3-------0---------|--0--0---0--0--0------------------------|
D|----2-----0-----2-------2---------|---------0--0--2------------------------|
A|------------------------3---------|--3------------3------------------------|
E|----1-----3-----1-----------------|---------3------------------------------|            
Submit corrections

↑ Back to top | Tablatures and chords for acoustic guitar and electric guitar, ukulele, drums are parodies/interpretations of the original songs. You may use it for private study, scholarship, research or language learning purposes only