Home » O » One Piece »

One Piece - Binks No Sake Tabs

Artists:  A B C D E F G H I J K L M N O P Q R S T U V W X Y Z # 

Binks No Sake Tabs

(ver. 2) Click to play this song!
One Piece
[Intro]  (x2)
e|--3-6-6-6--8-6-3-6--------|-3-6-6-6--8-6-3--------------|
B|--------------------------|----------------4------------|
G|--------------------------|-----------------------------|
D|--------------------------|-----------------------------|
A|--------------------------|-----------------------------|
E|--------------------------|-----------------------------|

[Verse]  (x2)
e|--6-3---------------------|--6-3------------------------|
B|------6-4---3-4-----------|------6-4---4----------------| 
G|----------5---------------|----------5---3--------------|
D|--------------------------|-----------------------------|
A|--------------------------|-----------------------------|
E|--------------------------|-----------------------------|

e|----------------3-3-------|  
B|----4-----4-6-4-----6-4-6-|
G|--5---3-5-----------------|
D|--------------------------|
A|--------------------------|
E|--------------------------|

[Outro]
Change the last note of the verse, like this, when it comes to the end. 
e|----------------3-3-------|  
B|----4-----4-6-4-----6-4-4-|
G|--5---3-5-----------------|
D|--------------------------|
A|--------------------------|
E|--------------------------|            
Submit corrections

↑ Back to top | Tablatures and chords for acoustic guitar and electric guitar, ukulele, drums are parodies/interpretations of the original songs. You may use it for private study, scholarship, research or language learning purposes only