Home » O » One Ok Rock »

One Ok Rock - Heartache Tabs

Artists:  A B C D E F G H I J K L M N O P Q R S T U V W X Y Z # 

Heartache Tabs

(ver. 1) Click to play this song!
One Ok Rock
 Rating:
4.3/5 (12 votes)
                [Verse]

D                      Asus                                   Em?            G
So they say that time  Takes away the pain  But I'm still the same           ~ohh
                                                               eb|-----------|
                                                               Bb|------3~---|
                                                               Gb|-----------|
                                                               Db|-4s5-------|
                                                               Ab|-----------|
                                                               Eb|-----------|
                                                                   10 second mark

D                    Asus                                 Em?               G
And they say that I  Will find another you  That can't be true              ~ohh
                                                          eb|------------------------------|
                                                          Bb|------3~----------------7-----|
                                                          Gb|--------------------------7---|
                                                          Db|-4s5---------------4s5--------|
                                                          Ab|------------------------------|
                                                          Eb|------------------------------|
                                                             0:23               0:26

[Pre-Chorus]

  Em                     G                          D                         Asus
  Why didn't I realize?  Why did I tell lies?  Yeah I wish that I could do it again   ohh
eb|-------------------------------------------------2------------------------------------|
Bb|-3--------------------3--------------------------3--------------------------5-5-5-----|
Gb|----------------------4--------------------------2--------------------------7-6-7-----|
Db|-2--------------------5-----------------------------------------------------7-7-7-----|
Ab|-2------------------------------------------------------------------------------------|
Eb|--------------------------------------------------------------------------------------|
  0:29                   0:32                       0:36                       0:39

  Em                      G                        Asus           A
  Turnin' back the time   Back when you were mine  All mine~
eb|---------------------------------------------------------------17--171717--17--17--171717--17----|
Bb|-3---------------------3------------------------5-5-5------------15------15--15--15------15--15--|
Gb|-----------------------4------------------------7-6-7--------------------------------------------|
Db|-2---------------------5------------------------7-7-7--------------------------------------------|
Ab|-2-----------------------------------------------------------------------------------------------|
Eb|-------------------------------------------------------------------------------------------------|
  0:43                    0:46                     0:49           0:53


[Chorus]

D                     G
So this is heartache? So this is heartache?
Em?                            Asus
Hiroi atsumeta kokai wa namida e to kawari oh baby
D                     G
So this is heartache? So this is heartache?
Em?                            Asus
Ano hi no kimi no egao wa omoide ni kawaru I miss you


[Interlude]

  D    G    D    G
eb|------------------------------------------------------------------------------14-15-14-15-14-14-14-15-14~-|
Bb|------------14-15~------------14--15-17-15-17-15-------------14-15~---------------------------------------|
Gb|-s11-12-11----------11-12-11----------------------s11-12-11----------11-12-11-----------------------------|
Db|----------------------------------------------------------------------------------------------------------|
Ab|----------------------------------------------------------------------------------------------------------|
Eb|----------------------------------------------------------------------------------------------------------|
   1:23


[Verse]

D                Asus                      Em?     G
Boku no kokoro o yuiitsu mitash*te satte yuku kimi ga
                                         eb|------------|
                                         Bb|-------3~---|
                                         Gb|------------|
                                         Db|--4s5-------|
                                         Ab|------------|
                                         Eb|------------|
                                              1:44

D                 Asus                        Em?         G
Boku no kokoro ni yuiitsu fure rareru koto ga dekita kimi wa       ~ Oh baby
                                              eb|----------------------------|
                                              Bb|------3~----------7---------|
                                              Gb|--------------------7-------|
                                              Db|-4s5----------4s5-----------|
                                              Ab|----------------------------|
                                              Eb|----------------------------|
                                                  1:57        2:00


[Pre-Chorus]

  Em?                    G                          D                         Asus
  Mo inai yo mo          nani mo nai yo        Yeah I wish that I could do it again  ohh
eb|-------------------------------------------------2-----------------------------------|
Bb|-3--------------------3--------------------------3-------------------------5-5-5-----|
Gb|----------------------4--------------------------2-------------------------7-6-7-----|
Db|-2--------------------5----------------------------------------------------7-7-7-----|
Ab|-2-----------------------------------------------------------------------------------|
Eb|-------------------------------------------------------------------------------------|
   2:03                  2:06                       2:10                      2:13

  Em                      G                        Asus           A
  Turnin' back the time   Back when you were mine  All mine~
eb|---------------------------------------------------------------17--171717--17--17--171717--17----|
Bb|-3---------------------3------------------------5-5-5------------15------15--15--15------15--15--|
Gb|-----------------------4------------------------7-6-7--------------------------------------------|
Db|-2---------------------5------------------------7-7-7--------------------------------------------|
Ab|-2-----------------------------------------------------------------------------------------------|
Eb|-------------------------------------------------------------------------------------------------|
   2:17                   2:20                     2:23           2:26


[Chorus]

D                     G
So this is heartache? So this is heartache?
Em?                            Asus
Hiroi atsumeta kokai wa namida e to kawari oh baby
D                     G
So this is heartache? So this is heartache?
Em?                             Asus
Ano hi no kimi no egao wa omoide ni kawaru I miss you


[Bridge]

  G         D                      Asus                 Em?
  It's so hard to forget           Kataku musunda sono musubime wa
eb|-------------------------------------------------------------------------|
Bb|-----------------10-10------------------------------10-10-10-------------|
Gb|-7------------7-7-----7-7-------9------------------7--------9-9----------|
Db|-------------------------------------------------------------------------|
Ab|-5------------------------------7----------------------------------------|
Eb|-------------------------------------------------------------------------|
  strum                            strum
  2:57


  G         D                   Asus               Em?
  It's so hard to forget        Tsuyoku hikeba hiku hodo ni
eb|------------------------------------------------------------------|
Bb|-----------------10-10--------------------------------------------|
Gb|-7------------77------7-7----9------------------7------11---------|
Db|------------------------------------------------------------------|
Ab|-5---------------------------7------------------5------9----------|
Eb|------------------------------------------------------------------|
  strum                         strum
  3:04


  G         D                      Asus              Em?
  You and all the regret           Hodokenaku natte hanare renaku natta
eb|-------------------------------------------------------------------------|
Bb|-----------------10-10------------------------------10-10-10-------------|
Gb|-7------------7-7-----7-7-------9------------------7--------9-9----------|
Db|-------------------------------------------------------------------------|
Ab|-5------------------------------7----------------------------------------|
Eb|-------------------------------------------------------------------------|
  strum                            strum
  3:10

  G                                D
  Ima wa tsurai yo                 sore ga tsurai yo
eb|-------------------------------------------------------------------------|
Bb|-----------------10-10------------------------------10-10-10-------------|
Gb|-7------------7-7-----7-7-------7------------------7--------9-9----------|
Db|-5------------------------------4----------------------------------------|
Ab|-------------------------------------------------------------------------|
Eb|-------------------------------------------------------------------------|
  strum                     strum
  3:17


       G                               Asus       A
  sugu wasuretai yo               kimi o~
eb|-------------------------------------------------------------------|
Bb|------------------10-10-------------5----------5-------------------|
Gb|----7----------7-7-----7-7----------7----------6-------------------|
Db|----5-------------------------------7----------7-------------------|
Ab|-------------------------------------------------------------------|
Eb|-------------------------------------------------------------------|
  strum                                strum      strum
  3:23

  
[Chorus]

  D                     G
  So this is heartache? So this is heartache?
eb|-------------------------------------------|
Bb|-------------------------------------------|
Gb|-7-------------------4---------------------|
Db|-7-------------------5---------------------|
Ab|-5-------------------5---------------------|
Eb|---------------------3---------------------|
  strummmmmm
  3:34

  Em                             Asus
  Hiroi atsumeta kokai wa namida e to kawari oh baby
eb|----------------------------------------------------|
Bb|------------------------------5---------5-------5---|
Gb|------------------------------7---------6-------7---|
Db|-2----------------------------7---------7-------7---|
Ab|-2--------------------------------------------------|
Eb|----------------------------------------------------|

    D                     G
  So this is heartache? So this is heartache?
eb|-------------------------------------------|
Bb|-------------------------------------------|
Gb|-7-------------------4---------------------|
Db|-7-------------------5---------------------|
Ab|-5-------------------5---------------------|
Eb|---------------------3---------------------|

    Em?                          Asus
  Ano hi no kimi no egao wa omoide ni kawaru I miss you
eb|----------------------------------------------------|
Bb|------------------------------5---------5-------5---|
Gb|------------------------------7---------6-------7---|
Db|-2----------------------------7---------7-------7---|
Ab|-2--------------------------------------------------|
Eb|----------------------------------------------------|


[Outro]

  D  G  D  G                                                     G   D  Em  D
eb|--------------------------------------------------------------------------------|
Bb|------------14-15~-------------14-15~-------------14-15~------------------------|
Gb|-s11-12-11----------s11-12-11----------s11-12-11--------------12--11--9--7------|
Db|--------------------------------------------------------------------------------|
Ab|--------------------------------------------------------------10--9---7--5------|
Eb|--------------------------------------------------------------------------------|            
Submit corrections

↑ Back to top | Tablatures and chords for acoustic guitar and electric guitar, ukulele, drums are parodies/interpretations of the original songs. You may use it for private study, scholarship, research or language learning purposes only