Home » O » One Ok Rock »

One Ok Rock - The Beginning Bass

Artists:  A B C D E F G H I J K L M N O P Q R S T U V W X Y Z # 

The Beginning Bass

(ver. 2) Click to play this song!
One Ok Rock
 Rating:
4/5 (4 votes)
                The Beginning Bass Tab
One Ok Rock
Jinsei X Boku


Tuning: Drop D (DADG) 

Legend:

~ - Let Ring
\ - Slide Upwards
/ - Slide Downwards
________________________________________________________________

INTRO

        G|-------------------------------------------|
        D|-------------------------------------------|
        A|--(IDLE)-----------------------------------|
        D|-------------------------------------------|

INTERLUDE

        G|---------|
        D|---------|
        A|---------|
        D|--12\5---|

        G|---------------------------------------------------|
        D|---------------------------------------------------|
        A|---------------------------------------------------|    3x
        D|--77777777\33333333/1010101010101010\55555555------|

        G|-------------------------------------------|
        D|-------------------------------------------|
        A|-------------------------------------------|
        D|--3333333333333333-5555555555555555--------|

VERSE

        G|-------------------------------------------|
        D|-------------------------------------------|
        A|-(IDLE)------------------------------------|
        D|-------------------------------------------|

        G|-------------------------------------------|
        D|-------------------------------------------|
        A|-------------------------------------------|
        D|-77-7-77-7-77-7-77-7--33-3-33-3-33-3-33-3--|

        G|-------------------------------------------|
        D|-------------------------------------------|
        A|-33-3-33-3-33-3-33-3-----------------------|
        D|----------------------55-5-55-5-55-5-55-5--|

REFRAIN

        G|-------------------------------------------|
        D|-------------------------------------------|
        A|-------------------------------------------|
        D|--33333333-55555555-33333333-22222222------|

CHORUS

        G|-------------------------------------------|
        D|-------------------------------------------|
        A|-------------------------------------------|
        D|--7777777777777777-3333333333333333--------|

        G|-----------------------------------------------------|
        D|-----------------------------------------------------|
        A|-----------------------------------------------------|
        D|--10101010101010101010101010101010-5555555555555555--|

        G|-------------------------------------------|
        D|-------------------------------------------|
        A|-------------------------------------------|
        D|--7777777777777777-3333333333333333--------|

        G|------------------------------------------------------|
        D|------------------------------------------------------|
        A|------------------------------------------------------|
        D|--10101010101010101010101010101010-55555555-66666666--|

REPEAT INTERLUDE

VERSE2

        G|----------------------------------|
        D|----------------------------------|
        A|----------------------------------|
        D|-7-7-7-7-7-7-7-7-3-3-3-3-3-3-3-3--|

        G|------------------------------------------|
        D|------------------------------------------|
        A|------------------------------------------|
        D|-10-10-10-10-10-10-10-10-5-5-5-5-5-5-5-5--|

        G|-------------------------------------------|
        D|-------------------------------------------|
        A|-------------------------------------------|
        D|-77-7-77-7-77-7-77-7--33-3-33-3-33-3-33-3--|

        G|-------------------------------------------|
        D|-------------------------------------------|
        A|-33-3-33-3-33-3-33-3-----------------------|
        D|----------------------55-5-55-5-55-5-55-5--|

REPEAT REFRAIN
REPEAT CHORUS           2x

ADLIB

        G|-----------------------|           G|-------------|
        D|-----------------------|           D|-------------|
        A|-----------------------|  3x Then  A|-------------|
        D|--333-222-7--77777777--|           D|-5555555555--|

        G|-----------------------|           G|-------------|
        D|-----------------------|           D|-------------|
        A|-----------------------|  3x Then  A|-------------|
        D|--333-222-7--77777777--|           D|-2~----------|

BRIDGE

        G|-------------------------------------------|
        D|-------------------------------------------|
        A|--(IDLE)-----------------------------------|
        D|-------------------------------------------|

        G|----------------------------------|
        D|----------------------------------|
        A|----------------------------------|
        D|-7-7-7-7-7-7-7-7-3-3-3-3-3-3-3-3--|

        G|------------------------------------------|
        D|------------------------------------------|
        A|------------------------------------------|
        D|-10-10-10-10-10-10-10-10-5-5-5-5-5-5-5-5--|

CHORUS

        G|-------------------------------------------|
        D|-------------------------------------------|
        A|-------------------------------------------|
        D|--7777777777777777-3333333333333333--------|

        G|-----------------------------------------------------|
        D|-----------------------------------------------------|
        A|-----------------------------------------------------|
        D|--10101010101010101010101010101010-5555555555555555--|

        G|-------------------------------------------|
        D|-------------------------------------------|
        A|-------------------------------------------|
        D|--7777777777777777-3333333333333333--------|

        G|------------------------------------------------------|
        D|------------------------------------------------------|
        A|------------------------------------------------------|
        D|--10101010101010101010101010101010-555555555555--4~---|

CHORUS2 (Slower)

        G|-------------------------------------------|
        D|-------------------------------------------|
        A|-------------------------------------------|
        D|--3333333333333333-5555555555555555--------|

        G|-------------------------------------------|
        D|-------------------------------------------|
        A|--3333333333333333-0000000000000000--------|
        D|-------------------------------------------|

        G|-------------------------------------------|
        D|-------------------------------------------|
        A|-------------------------------------------|
        D|--3333333333333333-5555555555555555--------|

        G|-------------------------------------------|
        D|-------------------------------------------|
        A|-------------------------------------------|
        D|--2222222222222222-3~----------------------|
                
END



Please Rate,... :D
            
Submit corrections

↑ Back to top | Tablatures and chords for acoustic guitar and electric guitar, ukulele, drums are parodies/interpretations of the original songs. You may use it for private study, scholarship, research or language learning purposes only